Give Kudos?
Are you sure you want to give kudos to taylor7458?

Add To Songbook?
Are you sure you want to add this song to your songbook?


2,747 bands | 35,276 songs
Search: Register FREE! | Login
Browse Songs:
Browse Bands:
Tool Panel
Discuss This Song

1 2 3 4 5



Stoney Larue - Oklahoma Breakdown (Lead)
Submitter: taylor7458 (1) on 5/25/10
Month Views: 1 | Total Views: 8,539
Moderator: rab05 | Report This Song?
Song Tools

Comment

Songbook

Kudos

Show Chords

Print

Oklahoma Breakdown

Intro                                             
------------------------------------------------
-----------------------------------------10-----
---------6-7-6---------------6-7-6---/9-----9---
------7--------7-7---------7--------------------
--/7-------------------/7-----------------------
------------------------------------------------


------------------------------------------------
------------------------------------------------
--------6-7-6---9---7-6-7-6-----------6-7-6-----
------7----------------------7------7--------7-7
--/7-----------------------------/7-------------
------------------------------------------------

 Comments (click here to add a non-facebook comment)
Home | FAQs | Privacy | Terms | Advertise | Contact
Top 100 Tab Sites