Give Kudos?
Are you sure you want to give kudos to EMRLDEYZS?

Add To Songbook?
Are you sure you want to add this song to your songbook?


2,721 bands | 35,144 songs
Search: Register FREE! | Login
Browse Songs:
Browse Bands:
Tool Panel
Discuss This Song

1 2 3 4 5



Taylor Swift - Teardrops On My Guitar (Intro)
Album: Taylor Swift (2006)
Submitter: EMRLDEYZS (26) on 6/24/08
Month Views: 3 | Total Views: 5,085
Moderator: e8n1 | Report This Song?
Song Tools

Comment

Songbook

Kudos

Show Chords

Print

CAPO 3 (all guitars)

INTRO:

Gtr I (E A D G B E) - 'Mandolin arr. for guitar'
Gtr II (E A D G B E) - 'Guitar 1'
Gtr III (E A D G B E) - 'Guitar 2'
  Q=102

 4/4
             Gtr I
|---------||-5-3---2-(2)-3---5-|-5-3---2-(2)-3---5-|-5-3---2-(2)-3-----|---------------------||
|---------||-------------------|-------------------|-----------------3-|-3---------------3---||
|---------||-------------------|-------------------|-------------------|---5---5-(5)-4-------||
|---------||-------------------|-------------------|-------------------|---------------------||
|---------||-------------------|-------------------|-------------------|---------------------||
|---------||-------------------|-------------------|-------------------|---------------------||
|
|            Gtr II
|---------||-------------------|-------------------|-------------------|---------------------||
|---------||-------------------|-------------------|-------------------|---------------------||
|---------||-2-0-----------0-2-|-2-0---------0---2-|-2-0---------0-----|---------------------||
|---------||-------4-(4)-0-----|-------4-(4)-------|-------4-(4)-----0-|-0---------------0---||
|---------||-------------------|-------------------|-------------------|---3---3-(3)-2-------||
|---------||-------------------|-------------------|-------------------|---------------------||
|
|            Gtr III
|---------||-------------------|-------0-----------|-------------------|---------------------||
|---------||-------3-----------|-------3-----------|-------3-----------|-------3-------------||
|---------||-----0---------0---|-----0---------0---|-----0---------0---|-----2---------2-----||
|---------||---0---------0---0-|---2---------2---2-|---2---------2---0-|---0---------0---0---||
|---------||-------------------|-------------------|-3--------3--------|---------------------||
|---------||-3--------3--------|-0--------0--------|-------------------|-2--------2----------||
 Comments (click here to add a non-facebook comment)
Home | FAQs | Privacy | Terms | Advertise | Contact
Top 100 Tab Sites