Give Kudos?
Are you sure you want to give kudos to EMRLDEYZS?

Add To Songbook?
Are you sure you want to add this song to your songbook?


2,722 bands | 35,147 songs
Search: Register FREE! | Login
Browse Songs:
Browse Bands:
Tool Panel
Discuss This Song

1 2 3 4 5



The Whites - The Sunny Side (Tab)
Submitter: EMRLDEYZS (38) on 10/7/04
Month Views: 7 | Total Views: 2,757
Help! We need a moderator for this artist. | Report This Song?
Song Tools

Comment

Songbook

Kudos

Show Chords

Print

Gtr I (E A D G B E)   
Gtr II (E A D G B E)  Capo 3
Gtr III (D G D G B D) Dobro Open G Tuned
Gtr IV (E A D G) -    Mandolin

 Introstyle='font-size:1px;color:#ffffff;'>
 
                  Bb                Eb
 2/2
  Gtr I
|---------------|--------10-------|-----------------|
|-----------10--|-11-----------11-|-13--11--10------|
|---10--12------|-----------------|-------------12--|
|---------------|-----------------|-----------------|
|---------------|-----------------|-----------------|
|---------------|-----------------|-----------------|
|
| Gtr II
|---------------|-----3-----------|------0-------0--|
|---------------|-----3------0----|------1-------1--|
|---------------|-----0------0----|------0-------0--|
|---------------|---------0-------|-----------------|
|---------------|-----------------|--3-------3------|
|---------------|--3--------------|-----------------|


  Bb
|---------------|------------10---|-13-----13----15----|
|---------------|-11-----11-------|--------------------|
|-10------------|-10--------------|--------------------|
|---------------|-----------------|--------------------|
|---------------|-----------------|--------------------|
|---------------|-----------------|--------------------|
|
|-----3-----3-3-|-----3-------3-3-|-----3------3--3----|
|-----3-----3-3-|-----3-------3-3-|-----3------3--3----|
|-----0-----0-0-|-----0-------0-0-|-----0------0--0----|
|--------0------|---------0-------|---------0----------|
|---------------|-----------------|--------------------|
|--3------------|--3--------------|--3-----------------|


                    F
                     TP
|-13--10------10--|--8-------------|--8-----8---10--|
|---------11------|-10-------------|-10-------------|
|-----------------|--8-------------|--8-------------|
|-----------------|----------------|----------------|
|-----------------|----------------|----------------|
|-----------------|----------------|----------------|
|
|------3-------3--|-----2-2----2---|-----2-------2--|
|------3-------3--|-----3-3----3-3-|-----3-------3--|
|------0-------0--|-----2-2----2-2-|-----2----2--2--|
|----------2------|--0-------------|--0-------------|
|-----------------|---------0------|--------0-------|
|--3--------------|----------------|----------------|


                                        Bb
|-11--------10----|-13----15-13---11--|-10-----10-(10)----------|
|--------------13-|-------------------|-------------------13----|
|-----------------|-------------------|-----10------------------|
|-----------------|-------------------|----------------13-------|
|-----------------|-------------------|-------------------------|
|-----------------|-------------------|-------------------------|
|
|-----2------2----|-----2-------2--2--|------3-------------3-3--|
|-----3------3----|-----3-------3--3--|------3-------------3-3--|
|-----2------2----|-----2-------2--2--|------0----------0--0-0--|
|--0--------------|--0--------0-------|-------------0-----------|
|--------0--------|-------------------|-------------------------|
|-----------------|-------------------|--3----------------------|


                F
|-------------|-8--8-8-8h10--8--|----------------|
|-------------|-----------------|-10------8--10--|
|-------------|-----------------|-----10---------|
|-8-----------|-----------------|----------------|
|-------------|-----------------|----------------|
|-------------|-----------------|----------------|
|
|----3-----3--|----2---------2--|------2---------|
|----3-----3--|----3---------3--|------3---------|
|----0-----0--|----2---------2--|------2---------|
|-------------|-0---------------|--0-------------|
|-------------|-----------0-----|----------------|
|-3-----3-----|-----------------|---------0---2--|


  Bb
|------------------|----------------||
|-11----8----------|----------------||
|---------10---8---|-7----8-7-------||
|------------------|-----------10---||
|------------------|----------------||
|------------------|----------------||
|
|-----3-3------3-3-|----3-------3---||
|-----3-3------3-3-|----3-------3---||
|-----0--------0-0-|----0-------0---||
|----------0-0-----|--------0-------||
|------------------|----------------||
|--3---------------|-3--------------||


  Bb
  Gtr III
|-------------|-------------|---------------||
|-------------|-------------|---------------||
|-------------|-------------|---------------||
|-8-----------|-------------|-----------3---||
|-------------|-------------|-------/3------||
|-------------|-------------|---------------||
|
| Gtr II
|----3-----0--|----3-----3--|----3------3-3-||
|----3-----1--|----3-----3--|----3------3-3-||
|----0-----0--|----0-----0--|----0------0-0-||
|-------------|-------0-----|--------0------||
|-------3-----|-------------|---------------||
|-3-----------|-3-----------|-3-------------||


 Dobro Solo  ---
  Bb              Eb               Bb
  ~
|---------------|----------------|---------------|------------------|
|---------------|----------------|---------------|-------------3----|
|-3-----5--5s7--|-7s5--3--2------|-------------3-|-(3)------3-------|
|---------------|------------/5--|-3-----3---3---|-------3-----3----|
|---------------|----------------|---------3-----|-----3------------|
|---------------|----------------|---------------|------------------|
|
|----3----------|------0------0--|----3------3-3-|-------3-----3-3--|
|----3-------0--|------1------1--|----3------3-3-|-------3-----3-3--|
|----0-------0--|------0------0--|----0------0-0-|-------0-----0-0--|
|-------0-------|----------------|-------0-------|----------0-------|
|---------------|---3-----3------|---------------|------------------|
|-3-------------|----------------|-3-------------|--3---------------|


|-3---------3s5---|-3-------------|
|-3---------------|----2s1-----3--|
|---------3-------|---------3-----|
|-----------------|---------------|
|-------3---------|---------------|
|-----------------|---------------|
|
|----3--------3-3-|------3-----3--|
|----3--------3-3-|------3-----3--|
|----0--------0-0-|------0-----0--|
|-------0---------|---------2-----|
|-----------------|---------------|
|-3---------------|-3-------------|


  F
|-------------------------|--------------------|
|-------------------------|-----------------7--|
|----------------------10-|-(10)---------10----|
|--------10-(10)----10----|--------------------|
|-/10------------10-------|--------------------|
|-------------------------|--------------------|
|
|------2--2----------2----|-------2-------2----|
|------3--3----------3--3-|-------3-------3----|
|------2--2----------2--2-|-------2----2--2----|
|---0---------------------|---0----------------|
|-------------0-----------|----------0---------|
|-------------------------|--------------------|


                                     Bb
                     ~
|------------------|-------1p0-----|----------------|----------------|
|------------------|-6---------1s3-|----3----1------|----------------|
|-8p=7-------------|---------------|----------------|-3--------------|
|-------10--(10)\--|---------------|-3-----3s1------|----------------|
|-8----------------|---------------|-------------/3-|----------8s10--|
|------------------|---------------|----------------|----------------|
|
|----2--------2----|----2----2-2---|----3------3--3-|----3-----3-----|
|----3--------3----|----3----3-3---|----3------3--3-|----3-----3-----|
|----2--------2----|----2----2-2---|----0----0-0--0-|----0-----0-----|
|-0----------------|-0-----0-------|-------0--------|----------------|
|--------0---------|---------------|----------------|----------------|
|------------------|---------------|-3--------------|-3-----3--------|


  F                                    Bb
   ~~
|--------------------|-------------|------------------|----------3--||
|--------------------|-------------|---------------
 Comments (click here to add a non-facebook comment)
Home | FAQs | Privacy | Terms | Advertise | Contact
Top 100 Tab Sites