Give Kudos?
Are you sure you want to give kudos to axehappy?

Add To Songbook?
Are you sure you want to add this song to your songbook?


2,722 bands | 35,147 songs
Search: Register FREE! | Login
Browse Songs:
Browse Bands:
Tool Panel
Discuss This Song

1 2 3 4 5



Tim McGraw - Home (Intro)
Album: Tim McGraw and the Dancehall Doctors (2002)
Submitter: axehappy (22) on 6/28/03
Month Views: 2 | Total Views: 4,506
Moderator: jhempel24 | Report This Song?
Song Tools

Comment

Songbook

Kudos

Show Chords

Print

Tim McGraw  -  Home (intro)

By axehappy  -  axehappy at countrytabs.com


***************************************************************

HIGH PART

				x2
E--3-2-0-------------------0---:
B-------3-0-1-3--1-0-----0-1---:
G-------------------2-0-2--0---:
D--------------------------2---:
A--------------------------3---:
E------------------------------:


LOW PART

			      x2
E------------------------0---:
B------------------------1---:
G--0---------------------0---:
D---4-2-0---0------------2---:
A--------2-3---3-2-0-0-2-3---:
E-------------------3--------:
 Comments (click here to add a non-facebook comment)
Home | FAQs | Privacy | Terms | Advertise | Contact
Top 100 Tab Sites