Give Kudos?
Are you sure you want to give kudos to WildCard76?

Add To Songbook?
Are you sure you want to add this song to your songbook?


2,636 bands | 34,516 songs
Search: Register FREE! | Login
Browse Songs:
Browse Bands:
Tool Panel
Discuss This Song

1 2 3 4 5





Tim McGraw - Maybe We Should Just Sleep On It (Intro)
Album: All I Want (1995)
Submitter: WildCard76 (264) on 12/10/02 1 comment
Month Views: 16 | Total Views: 3,397
Moderator: jhempel24 | Report This Song?
Song Tools

Comment

Songbook

Kudos

Show Chords

Print

Intro

E---------------------------------------------------
B-3-------3---------------3-------3-----------------
G-----------------2-4-2-------------------2-4-2-----
D---5-4-5---5-4-5-------5---5-4-5---5-4-5-------5---
A-------------------------------------------------5-
E---------------------------------------------------
 Comments (click here to add a non-facebook comment)
hey; i think this tab is great although the 5-4-5 thing isnt right. the beat of the song is --5s4s5-- then back to 3 on the b string like this
e-----------------------------
b--3------------3-------------
g-----------------------------
d----5-s-4-s-5-----5-4-4------




-steve60659 | 8/11/2003
Home | FAQs | Privacy | Terms | Advertise | Contact
Top 100 Tab Sites