Give Kudos?
Are you sure you want to give kudos to DaveWH?

Add To Songbook?
Are you sure you want to add this song to your songbook?


2,987 bands | 36,846 songs
Search: Register FREE! | Login
Browse Songs:
Browse Bands:
Tool Panel
Discuss This Song

1 2 3 4 5



Tim McGraw - She's My Kind Of Rain (Solo)
Album: Tim McGraw and the Dancehall Doctors (2002)
Submitter: DaveWH (3) on 3/24/03 2 comments
Month Views: 195 | Total Views: 8,484
Moderator: jhempel24 | Report This Song?
Song Tools

Comment

Songbook

Kudos

Show Chords

Print

She's My Kind of Rain   by Tim MacGraw

Solo


|-------------------------------------------8--7-----------------|
|------------------------------------8-10---------8--------------|
|-7--5---------------------5--7-s-9------------------99-9br-7----|
|--------5-h-7-p-5---5-h-7------------------------------------10-|
|----------------------------------------------------------------|
|----------------------------------------------------------------|



|-----8-10--b10--b10--r10--8-10-8---7-8-10---------------|
|-s10--------------------------------------8---5h6p5-----|
|----------------------------------------------------7-5-|
|--------------------------------------------------------|
|--------------------------------------------------------|
|--------------------------------------------------------|



|------------------------------------------------------|
|------------------------------------------------------|
|-5------5--5--------------------------------5-6-------|
|-5-h-7--5--5----------------------5-----5-7-----7-5-7-|
|--------------7---5-p-3---3-5-s-7-----7---------------|
|------------------------5-----------------------------|



I'm not real sure about the ending.  My recording is a bit hard to hear clearly,
plus the singing starts again.


 Comments (click here to add a non-facebook comment)
Not a bad job the solo now i just have to work on playing it right!!!
Sweet job man keep it up. One thing, the top hits on the 10th
fret should be played on the 12th
-Oceancitysurf77 | 4/13/2004
the b10 means bend at the 10th fret and the
r10 means to release the bend, so those notes
should be at the 12th fret pitch. I keep
forgetting to put a lengend on the tab when
I include these type symbols. Sorry.
-DaveWH | 5/25/2004
Home | FAQs | Privacy | Terms | Advertise | Contact
Top 100 Tab Sites