Give Kudos?
Are you sure you want to give kudos to saleen9899?

Add To Songbook?
Are you sure you want to add this song to your songbook?


2,732 bands | 35,199 songs
Search: Register FREE! | Login
Browse Songs:
Browse Bands:
Tool Panel
Discuss This Song

1 2 3 4 5



Tim McGraw - Somebody Must Be Prayin For Me (Intro)
Album: A Place In the Sun (1999)
Submitter: saleen9899 (1) on 7/14/03
Month Views: 10 | Total Views: 2,968
Moderator: jhempel24 | Report This Song?
Song Tools

Comment

Songbook

Kudos

Show Chords

Print

capo on 2nd

e--5--3--2---3-3-5-7-8-7-3-------------
B---5--3--3-3-3------------------------
G----4--2--2---------------------------
D--------------------------------------
A----------------------------------0---
E-------------------------0-0-0h2-3-3--

e--5--3--2---3-3-5-7-8-10-3------------
B---5--3--3-3-3------------------------
G----4--2--2---------------------------
D--------------------------------------
A--------------------------------------
E--------------------------------------
 Comments (click here to add a non-facebook comment)
Home | FAQs | Privacy | Terms | Advertise | Contact
Top 100 Tab Sites