Give Kudos?
Are you sure you want to give kudos to yinielin?

Add To Songbook?
Are you sure you want to add this song to your songbook?


2,734 bands | 35,230 songs
Search: Register FREE! | Login
Browse Songs:
Browse Bands:
Tool Panel
Discuss This Song

1 2 3 4 5



Tim McGraw - Something Like That (Intro)
Album: A Place In the Sun (1999)
Submitter: yinielin (2) on 6/14/03
Month Views: 8 | Total Views: 7,250
Moderator: jhempel24 | Report This Song?
Song Tools

Comment

Songbook

Kudos

Show Chords

Print

By:Yinielin
Something Like That, By Tim McGraw

This is actually actually piano :)
but this makes a nice little fill in the song. 


E---------------------------------------------
B--------8h10-------8h10-------8h10-----------
G--10-10------10-10------10-10----------------
D-------------------------------------7--5----
A---------------------------------------------
E---------------------------------------------

E---------------------------------------------
B--------8h10-------8h10-------8h10-----------
G--10-10------10-10------10-10----------------
D---------------------------------------------
A---------------------------------------------
E---------------------------------------------

E---------------------------------------------
B---------------------------------------------
G---------------------------------------------
D-5h7-5---5-----------------------------------
A-------8---8-5-8-----------------------------
E---------------------------------------------
 Comments (click here to add a non-facebook comment)
Home | FAQs | Privacy | Terms | Advertise | Contact
Top 100 Tab Sites