Give Kudos?
Are you sure you want to give kudos to geetar81?

Add To Songbook?
Are you sure you want to add this song to your songbook?


2,831 bands | 36,009 songs
Search: Register FREE! | Login
Browse Songs:
Browse Bands:
Tool Panel
Discuss This Song

1 2 3 4 5



Tim McGraw - Something Like That (Lead)
Album: A Place In the Sun (1999)
Submitter: geetar81 (3) on 4/29/02 3 comments
Month Views: 11 | Total Views: 11,329
Moderator: jhempel24 | Report This Song?
Song Tools

Comment

Songbook

Kudos

Show Chords

Print


You'll here these licks through the verses.

Lick 1                      
E-------------------|
B-------------------|
G-------------------|
D-4^6-4-2-4-2---2---|
A-------------4-----|
E-------------------|

Lick 2       
E---------|
B---------|
G---------|
D-----2---|
A-2^4-----|
E---------|

Lick 3
E-----------------|
B-----------------|
G-----------------|
D-2-----------2---|
A---4^2---2^4-----|
E-------4---------|

Solo
E---------------------------------------------
B-7^9-9-9-9^7-7-9^10---7b---------------------
G-------------------------9-7-----------------
D-----------------------------9-7-77^9-9-----
A---------------------------------------------
E---------------------------------------------

E----------------------------------------|
B------------------9-7^9^7-7---7---------|
G-7--9^7----9-9--------------9---9b-6----|
D--------9b------------------------------|
A----------------------------------------|
E----------------------------------------|

- Geetar
 Comments (click here to add a non-facebook comment)
Great tab impressive.
-yinielin | 6/9/2003
Can you mark where these licks are heard
in the verses?
-stuey222 | 1/2/2004
what are the ^ for? different people have different ideas and i thought it was a bend, but the 7b and stuff has me confused now...
-joshdsd | 5/18/2005
Home | FAQs | Privacy | Terms | Advertise | Contact
Top 100 Tab Sites