Give Kudos?
Are you sure you want to give kudos to Priebe?

Add To Songbook?
Are you sure you want to add this song to your songbook?


2,960 bands | 36,675 songs
Search: Register FREE! | Login
Browse Songs:
Browse Bands:
Tool Panel
Discuss This Song

1 2 3 4 5



Tim McGraw - Welcome To The Club (Intro)
Album: Tim McGraw (1993)
Submitter: Priebe (0) on 10/26/03
Month Views: 93 | Total Views: 2,883
Moderator: jhempel24 | Report This Song?
Song Tools

Comment

Songbook

Kudos

Show Chords

Print

E--x--x--3--3--3--2--x--x--x--x--x--3--3--2--
B--x--x--3--3--3--3--x--x--x--x--x--3--3--3--
G--------------------------------------------
D--------------------------------------------
A--------------------------------------------
E--------------------------------------------

E--x--x--x--x--5--5--5--3--2--3--
B--x--x--x--x--3--3--3--3--3--3--
G-------------------------------- x2
D--------------------------------
A--------------------------------
E--------------------------------

The whole intro is palm muted and all downstrokes.
 Comments (click here to add a non-facebook comment)
Home | FAQs | Privacy | Terms | Advertise | Contact
Top 100 Tab Sites