Give Kudos?
Are you sure you want to give kudos to hicktown333444?

Add To Songbook?
Are you sure you want to add this song to your songbook?


2,732 bands | 35,203 songs
Search: Register FREE! | Login
Browse Songs:
Browse Bands:
Tool Panel
Discuss This Song

1 2 3 4 5



Tim McGraw - When The Stars Go Blue Tab (Tab)
Album: Reflected: Greatest Hits Vol. 2 (2006)
Submitter: hicktown333444 (0) on 4/28/06 1 comment
Month Views: 3 | Total Views: 6,157
Moderator: jhempel24 | Report This Song?
Song Tools

Comment

Songbook

Kudos

Show Chords

Print

I do this with the capo on the 3rd fret. I think it souns good!

------------------------------------------------
------------------------------------------------
------------------------------------------------
------------------------------------------------
---0--0h2-3-2p0---5---5-------0-0h2-3-2p0-------
----------------3---2----------------------3----

God Bless!
 Comments (click here to add a non-facebook comment)
got all wrong man it goes like this
use ur index finger and bar an A chord
e------------------------------------------
b------------------------------------------
g------------------------------------------
d-2-2-2---2--------------------------------
a-0-0-3h4-0--------------------------------
e-----------333----------------------------
play it kinda hard and sloppy

-themastertater0 | 1/17/2006
Home | FAQs | Privacy | Terms | Advertise | Contact
Top 100 Tab Sites