Give Kudos?
Are you sure you want to give kudos to Smoothie7745?

Add To Songbook?
Are you sure you want to add this song to your songbook?


2,635 bands | 34,497 songs
Search: Register FREE! | Login
Browse Songs:
Browse Bands:
Tool Panel
Discuss This Song

1 2 3 4 5





Toby Keith - Beer For My Horses (correct) (Intro)
Album: Unleashed (2002)
Submitter: Smoothie7745 (15) on 4/17/05 3 comments
Month Views: 44 | Total Views: 17,261
Sound Byte: Listen
Moderator: Korry | Report This Song?
Song Tools

Comment

Songbook

Kudos

Show Chords

Print

Tabbed by Jason Marbach (please e-mail all questions to Smoothie7745 at hotmail.com)

The other versions posted of this are close, but not quite right...this is what 
Scotty Emerick or whoever is playing in the recording of the song that is on the 
CD and the radio.

Capo I, all notes relative

E-----5-5-5-5-5-5-5---5-5-5-5--|
B-----5-4-3-----------5-4-3----|
G-0h2-------5-2---2---------5--|
D-0h2-----------5--------------|
A-0-----------------0----------|
E------------------------------|
                                            A
E---5-5-5-5-5-5-5---------------------------0--|
B---5-4-3-----------------------------------2--|
G---------5-2---2--5p4p2--2-----------------2--|
D-------------5---------5---5p4p2--2--------2--|
A-0------------------------------5---3p2p0--0--|
E-----------------------------------------3----|

Soundbyte to come soon.
 Comments (click here to add a non-facebook comment)
Thanks a lot for this tab...ive been wanting to know how to do the great intro.
-raceman190 | 4/18/2005
My pleasure...it *is* a really great intro. :D

Enjoy!
-Smoothie7745 | 4/19/2005
GOOD JOB... THIS CAN ALSO BE MORE EASILY PLAYED IF YOU CAPO TO 5 FOR KEY OF A (6 TOBY'S Bb key)/ e:OOOOOOO/ B:O/ G:-321---0/ D:----20h2-//
REPEAT FIRST 4+hold// IF CHANGING CHORDS TO THIS KEY... PLAY E A D/E B E throw in C#m for the F#m and D for the G >> doc d
-laandommer | 12/15/2005
Home | FAQs | Privacy | Terms | Advertise | Contact
Top 100 Tab Sites