Give Kudos?
Are you sure you want to give kudos to axehappy?

Add To Songbook?
Are you sure you want to add this song to your songbook?


2,722 bands | 35,144 songs
Search: Register FREE! | Login
Browse Songs:
Browse Bands:
Tool Panel
Discuss This Song

1 2 3 4 5



Toby Keith - Gimme 8 Seconds (Intro)
Album: Pull My Chain (2001)
Submitter: axehappy (14) on 3/9/02 1 comment
Month Views: 2 | Total Views: 5,979
Moderator: Korry | Report This Song?
Song Tools

Comment

Songbook

Kudos

Show Chords

Print

Toby Keith - Gimme 8 Seconds (intro)

By axehappy - axehappy at countrytabs.com

***********************************************************************

h   =   hammer-on                           p   =   pulloff

/   =   slide up                            pbr =   pre-bend & release

\   =   slide down                          b   =   bend

***********************************************************************


INTRO (doubled by 2nd guitar on repeat)


E:---------------------------------------------:
B:----------------------------------------4/6--:
G:--------0-3-3p2-----------------0-3-3p2------:
D:-----1-3---1---3-1-1h3-1-----1-3---1---3-----:
A:--1h3-------------3---3---1h3----------------:
E:---------------------------------------------:


E-----------3----------18---------------------------------------------|
B--6pbr-p4-6-4b-----18b--18-16----------------------------------8-----|
G--------------5--------------17--17--15h17--15/17-15-12\10-8-10-8b---|
D-----------------------------------17-----------------------------10-|
A---------------------------------------------------------------------|
E---------------------------------------------------------------------|

 Comments (click here to add a non-facebook comment)
This is a kick ass song. I encourage everyone to hear it.
-angus123 | 6/1/2004
Home | FAQs | Privacy | Terms | Advertise | Contact
Top 100 Tab Sites