Give Kudos?
Are you sure you want to give kudos to WildCard76?

Add To Songbook?
Are you sure you want to add this song to your songbook?


2,626 bands | 34,392 songs
Search: Register FREE! | Login
Browse Songs:
Browse Bands:
Tool Panel
Discuss This Song

1 2 3 4 5





Toby Keith - How Do You Like Me Now?! (Tab)
Album: How Do You Like Me Now (1999)
Submitter: WildCard76 (139) on 8/9/09
Month Views: 12 | Total Views: 2,521
Moderator: Korry | Report This Song?
Song Tools

Comment

Songbook

Kudos

Show Chords

Print

HOW DO YOU LIKE ME NOW?!
Toby Keith
Submitted by: Christopher R

Intro:

E--------------------------5--5--------------------------------------
B--x-x--6/8---5-x--5h6-----6--6--------------------------------------
G--x-x--7/9---5-x--5-------5--5--x-x------5-x-5h7----7-7-7p5--x-x----
D-------------5-x--5h7--------7--x-x------5-x-5h7----7-7-7p5--x-x----
A-------------------------------------5h7----------------------------
E--------------------------------------------------------------------



E----------------------5--5--------------------------------x-x-------
B---6/8---5-x--5h6-----6--6----------------------5-5-------x-x-------
G---7/9---5-x--5-------5--5--x-x------5-x-5h7----7-7-7p5-------------
D---------5-x--5h7--------7--x-x------5-x-5h7----7-7-7p5-------------
A---------------------------------5h7--------------------------------
E--------------------------------------------------------------------




Guitar Solo:

E--------------------------------------------------------------------
B--------------------------------------------------------------------
G------------------b3-hold-r-----------------------------------------
D-----3p1---1---3-------------5-4-2----------------------------------
A---------3-------------------------b6---3-x-3-----------------------
E--1-------------------------------------------3---b5rh3--3--6/7-----

E---------------------6------6---------------
B---------------b6-------b6----b6------------
G--------------------------------------------
D--5-----5--5--------------------------------
A-----x--------------------------------------
E--------------------------------------------
 Comments (click here to add a non-facebook comment)
Home | FAQs | Privacy | Terms | Advertise | Contact
Top 100 Tab Sites