Give Kudos?
Are you sure you want to give kudos to axehappy?

Add To Songbook?
Are you sure you want to add this song to your songbook?


2,722 bands | 35,151 songs
Search: Register FREE! | Login
Browse Songs:
Browse Bands:
Tool Panel
Discuss This Song

1 2 3 4 5



Toby Keith - How Do You Like Me Now (Intro)
Album: How Do You Like Me Now (1999)
Submitter: axehappy (49) on 5/6/02 4 comments
Month Views: 10 | Total Views: 17,387
Moderator: Korry | Report This Song?
Song Tools

Comment

Songbook

Kudos

Show Chords

Print

Toby Keith - How Do You Like Me Now (intro)

By axehappy - axehappy at countrytabs.com


This intro riff repeats twice before the song starts properly.
The picking pattern I've tabbed is the way I play it....it makes it
easier for me, so it might be worth following.


   ^   =   downstroke (away from you)     
   
   .   =   upstroke (toward you)


***********************************************************************

x   =   dead note                               /   =   slide up

h   =   hammer-on                               p   =   pulloff

***********************************************************************



   ^ . ^   ^ ^    ^ .  ^ . ^   ^ ^    ^ . ^    ^ . ^   ^ ^   ^ . ^ .
E-----------------7-7----------------------------------------8-8-8-8--
B--x-x-6/8-5-5h6--6-6--------------------------x-x-6/8-5-5h6-6-6-6-6--
G--x-x-7/9-5-5----5-5----------5-5h7--7-7-7p5--x-x-7/9-5-5---5-5-5-5--
D------------5h7--7-7--x-x-5---5-5h7--7-7-7p5------------5h7-7-7-7-7--
A----------------------x-x-5h7----------------------------------------
E---------------------------------------------------------------------


   ^ . ^   ^ ^    ^ . ^
E---------------------------|
B------------5----5-5-5-----|
G----------5-5h7--7-7-7p5---|
D--x-x-5---5-5h7--7-7-7p5---|
A--x-x-5h7------------------|
E---------------------------|

 Comments (click here to add a non-facebook comment)
i am terribly sorry but can i get a sound byte with
this i am not very good with timing
bael,
-Bael | 6/15/2003
nice one again axe.. thanx
-KU_isbestever | 9/11/2004
this sounds awesome way 2 go man
-fender920 | 3/1/2005
Very cool and almost correct but for 2 notes on what is tabbed as the little chord 7 the top 7 is not right. should be. 5
6 6
5 5
7 7
It can either be a 5 or a 8 not a seven that would give the chord a #4 which doesn't go with the key. Other than that it is amazing. Great Job
-wildman64583 | 9/6/2005
Home | FAQs | Privacy | Terms | Advertise | Contact
Top 100 Tab Sites