Give Kudos?
Are you sure you want to give kudos to BrianEarlHaines?

Add To Songbook?
Are you sure you want to add this song to your songbook?


2,712 bands | 35,098 songs
Search: Register FREE! | Login
Browse Songs:
Browse Bands:
Tool Panel
Discuss This Song

1 2 3 4 5



Toby Keith - Stays In Mexico (Solo)
Album: Greatest Hits 2 (2004)
Submitter: BrianEarlHaines (28) on 1/17/05
Month Views: 12 | Total Views: 4,040
Moderator: Korry | Report This Song?
Song Tools

Comment

Songbook

Kudos

Show Chords

Print

Horn part arranged for guitar:

E------------------------------------------------
B--2-3-5-5-5-5-5-5-5--2-3-2----------------------
G------------------------------2-4-6-4-2--2-4-2--
D------------------------------------------------
A------------------------------------------------
e------------------------------------------------

E------------------------------------------------
B------1-2-1--------2-4-6-4-2------9-9-9---------
G----4-------4-----------------------------------
D------------------------------------------------
A------------------------------------------------
e------------------------------------------------


Guitar Solo:

E--17-16-17-14-16-12-14-10-12------------------------------
B-------------------------------12b-12-10-10^12-10^12-10---
G----------------------------------------------------------
D----------------------------------------------------------
A----------------------------------------------------------
e----------------------------------------------------------


E----------------------------------------------------------
B-------------10--12b-12-10-10^12-10^12-10---9-10-9-7-9-7-5
G-----9--9^11----------------------------------------------
D9^11------------------------------------------------------
A----------------------------------------------------------
e----------------------------------------------------------
 Comments (click here to add a non-facebook comment)
Home | FAQs | Privacy | Terms | Advertise | Contact
Top 100 Tab Sites