Give Kudos?
Are you sure you want to give kudos to DaveWH?

Add To Songbook?
Are you sure you want to add this song to your songbook?


3,023 bands | 36,984 songs
Search: Register FREE! | Login
Browse Songs:
Browse Bands:
Tool Panel
Discuss This Song

1 2 3 4 5



Todd Snider - Just In Case (Chord)
Album: Happy to Be Here (2000)
Submitter: DaveWH (4) on 3/11/03
Month Views: 202 | Total Views: 6,697
Moderator: Ray Terry | Report This Song?
Song Tools

Comment

Songbook

Kudos

Show Chords

Print

Just in Case   by Todd Snider

chords - low to high
--------------
D : xx0232
G : 3x0003
G/F# : 2x0003  (these can be omitted if prefered.  Its mainly just for the bass)
Emin : 022000
A : x0222x
--------------

The harmonica part is tabbed for a guitar.  The first time is after the first chorus. (1*)
The second time is after last chorus and fade out (2*)



(verse)
           D                G               D
You oughta know by now this love of mine is real.
       G          G/F#     Emin            A
Honey, words just can't describe the way I feel.
G               A            D               G       G/F#
And even though we just met, I'm so glad the date is set,
    Emin       G/F#  G       G/F#     Emin       A 
and years from now   i would bet we'd be together  still.


(chorus)
                G  A               D   G 
But just in case.     Just in case.
          Emin    G/F#      G            A 
Well this morning I    went by my lawyers place.
G                    A
 I didn't think that you would mind,
          D           G      G/F#
here honey, sign this dotted line.  
      Emin     G/F#
Whats yours is yours and
G       G/F#     Emin      A 
what is mine will always be   mine, 
      D        G  D  G  D  G  A
just in case.  1*


(verse)
         D            G         D
Well you know I can't love you enough.
      G    G/F#  Emin  G/F#  G                 A
But I also can't afford      to lose half of my stuff.
G               A                D               G        G/F#
Theres no doubt in my mind these ties that we're about to bind
     Emin    G/F#   G      G/F# Emin            A
will hold us both together any  time it gets too tough.

(chorus)
                G  A              D  G
But just in case.    Just in case.
     Emin    G/F#    G            A 
This morning I swung by my lawyers place.
G                    A
 I didn't think that you would mind,
              D          G      G/F# 
here dumpling, sign this dotted line.
      Emin     G/F#
Whats yours is yours and 
G       G/F#      Emin      A
what is mine will always be   mine,
        D     G          D     G 
Just in case.    Just in case.

   D  G  A   |D G D G D G A| repeat & fade...
2*

---------------------------------------------------------

Harmonica : arranged for guitar

1*

|-5(hold)---------------5(hold)--------------|
|-----------8-7-5br--------------8-7-5(hold)-|
|-------------------7------------------------|
|--------------------------------------------|
|--------------------------------------------|
|--------------------------------------------|


2*
|-----5(hold)---7---5-5(hold)--------5(hold)------------5(hold)-|
|---7------------------------------7-----------8-7-----7--------|
|-7------------------------------7-----------------7--7---------|
|---------------------------------------------------------------|
|---------------------------------------------------------------|
|---------------------------------------------------------------|


|---5-5----------------------------|
|--7------7-8-7------7-8-7---------|
|-7-------------7-7--------7(hold)-|
|----------------------------------|
|----------------------------------|
|----------------------------------|


 
 Comments (click here to add a non-facebook comment)
Home | FAQs | Privacy | Terms | Advertise | Contact
Top 100 Tab Sites