Give Kudos?
Are you sure you want to give kudos to WildCard76?

Add To Songbook?
Are you sure you want to add this song to your songbook?


2,636 bands | 34,517 songs
Search: Register FREE! | Login
Browse Songs:
Browse Bands:
Tool Panel
Discuss This Song

1 2 3 4 5





Trace Adkins - Help Me Understand (Intro)
Album: Chrome (2001)
Submitter: WildCard76 (277) on 1/7/03
Month Views: 26 | Total Views: 3,044
Moderator: Ray Terry | Report This Song?
Song Tools

Comment

Songbook

Kudos

Show Chords

Print

HELP ME UNDERSTAND
Trace Adkins



This is the intro to the song. It's done with a fiddle and a steel, but I've made 
it so that it can be played on guitar.

E------------------------------------2--------
B--0-------0-1-0-------------1----------------
G--0-----0-------0----------0------2----------
D--0---------------0-----0h2-----0------------
A----------------------3----------------------
E---------------------------------------------

E---------------------------------------------
B--0-------0-1-0-------------1---3------------
G--0-----0-------0----------0----5--------2---
D--0---------------0-----0h2-----5--------0---
A----------------------3---------3------------
E---------------------------------------------

 Comments (click here to add a non-facebook comment)
Home | FAQs | Privacy | Terms | Advertise | Contact
Top 100 Tab Sites