Give Kudos?
Are you sure you want to give kudos to Andrew?

Add To Songbook?
Are you sure you want to add this song to your songbook?


2,750 bands | 35,293 songs
Search: Register FREE! | Login
Browse Songs:
Browse Bands:
Tool Panel
Discuss This Song

1 2 3 4 5



Trace Adkins - Rough And Ready (Intro)
Album: American Man, Greatest Hits Vol. II (2007)
Submitter: Andrew (0) on 10/17/04 2 comments
Month Views: 12 | Total Views: 5,135
Moderator: Ray Terry | Report This Song?
Song Tools

Comment

Songbook

Kudos

Show Chords

Print

This is the intro/main riff as far as i can tell.


---------------------------------
----5----------------------------
-4bh-4r-2-02-5\4-4-4-2-2^0---2---
-------------5\4-4-4-2-----------
----------------0-0---0---3-0----
---------------------------------




-----------------------3---------
----5------------33-3/5--5\3-0---
-4bh-4r-2-02-5\4-22-----------2--
-------------5\4-----------------
----------------0--0-------------
---------------------------------

bh = bend and hold
r  = release 
\ /= slide
^  = pull-off

Any comments/corrections. I'm new at this 
transcr i ption stuff so let me know how I' doing?
 Comments (click here to add a non-facebook comment)
After listening a little closer (with a few
less beers in me) the last few notes are as
follows..........

E----3---------------
B-3\5--5/3-1---------
G-----------2--------
D--------------------
A--------------------
E--------------------
-Andrew | 10/19/2004
I think the begining of the intro goes like this
pre>
--------------------------
---5----------------------
4bh---4br--2---2----------
-------------4------------ /pre>
-guitarjaph | 8/15/2005
Home | FAQs | Privacy | Terms | Advertise | Contact
Top 100 Tab Sites