Give Kudos?
Are you sure you want to give kudos to musicmixstudio?

Add To Songbook?
Are you sure you want to add this song to your songbook?


2,751 bands | 35,343 songs
Search: Register FREE! | Login
Browse Songs:
Browse Bands:
Tool Panel
Discuss This Song

1 2 3 4 5



Traditional - Ashokan Farewell (Tab)
Submitter: musicmixstudio (6) on 10/1/08
Month Views: 12 | Total Views: 16,477
Help! We need a moderator for this artist. | Report This Song?
Song Tools

Comment

Songbook

Kudos

Show Chords

Print

D                       D7   

    3   &   1   &   2   &   3   &   1   &   2   &   3   &
E-------9---10----------9----------------------------------
B---10----------------------12--10-------------------------
G-----------------------------------11--------------9---11-
D----------------------------------------------------------
A----------------------------------------------------------
E----------------------------------------------------------



    G                       Em          

    1   &   2   &   3   &   1   &   2   &   3   &
E--------------------------------------------------
B--------------------------------------------------
G---12----------11--9------------------------------
D-----------------------12--9-------12----------9--
A--------------------------------------------------
E--------------------------------------------------
 


    D   

    1   &   2   &   3   &   1   &   2   &   3   &
E----------------------------------10-------14-----
B---------------------------10---------------------
G-------------------11-----------------------------
D-----------12-------------------------------------
A---12---------------------------------------------
E--------------------------------------------------



    Bm                      A7   

    1   &   2   &   3   &   1   &   2   &   3   &
E---14----------15--14------12------------------9--
B-------------------------------------------10-----
G--------------------------------------------------
D--------------------------------------------------
A--------------------------------------------------
E--------------------------------------------------



    D                       D7   

    1   &   2   &   3   &   1   &   2   &   3   &
E---10----------9----------------------------------
B-------------------12--10-------------------------
G---------------------------11--------------9---11-
D--------------------------------------------------
A--------------------------------------------------
E--------------------------------------------------



    G                       Em          

    1   &   2   &   3   &   1   &   2   &   3   &
E--------------------------------------------------
B--------------------------------------------------
G---12----------11--9------------------------------
D-----------------------12--9-------12----------9--
A--------------------------------------------------
E--------------------------------------------------
 


    D   

    1   &   2   &   3   &   1   &   2   &   3   &
E----------------------------------10-------14-----
B---------------------------10---------------------
G-------------------11-----------------------------
D-----------12-------------------------------------
A---12---------------------------------------------
E--------------------------------------------------



    A7                      D

    1   &   2   &   3   &   1   &   2   &   3   &
E-----------9-------12------10---------------------
B---10---------------------------------------------
G-------------------------------------------11--12-
D--------------------------------------------------
A--------------------------------------------------
E--------------------------------------------------



    D                       D7           

    1   &   2   &   3   &   1   &   2   &   3   &
E---------------------------10----------------------
B---10--------------------------------------10-(11)-
G---------------11----------------------------------
D-------------------12------------------------------
A---------------------------------------------------
E---------------------------------------------------




    G                       D   

    1   &   2   &   3   &   1   &   2   &   3   &
E---------------9---10-----------------------------
B---12----------------------10---------------------
G-----------------------------------11----------9--
D--------------------------------------------------
A--------------------------------------------------
E--------------------------------------------------



                            Bm

    1   &   2   &   3   &   1   &   2   &   3   &
E---------------------------------------------------
B---------------------------------------------------
G---11----------9-----------------------------------
D-------------------12------9-----------------------
A-------------------------------------------10-(11)-
E---------------------------------------------------



    A7

    1   &   2   &   3   &   1   &   2   &   3   &
E--------------------------------------------------
B---------------------------10---------------------
G-----------------------------------12------11--9--
D---------------9---10--11-------------------------
A---12---------------------------------------------
E--------------------------------------------------

                              
                            D7
    D                   (or Am7)

    1   &   2   &   3   &   1   &   2   &   3   &
E---------------------------------------------------
B-------------------10------13-------------(10)(11)-
G-----------11--------------------------------------
D---12----------------------------------------------
A---------------------------------------------------
E---------------------------------------------------



    G                       D

    1   &   2   &   3   &   1   &   2   &   3   &
E---------------9---10-----------------------------
B---12----------------------10---------------------
G-----------------------------------11-------------
D------------------------------------------12------
A--------------------------------------------------
E--------------------------------------------------



                            Bm

    1   &   2   &   3   &   1   &   2   &   3   &
E-----------------------------------10-------------
B---------------------------10---------------------
G------------------11-----------------------11-----
D----------12--------------------------------------
A--12----------------------------------------------
E--------------------------------------------------



    A7                      D

    1   &   2   &   3   &   1   &   2   &   3   &
E--------------------------------------------------
B--------------------------------------------------
G---9----------------------------------------------
D---------------12--11------12---------------------
A--------------------------------------------------
E--------------------------------------------------


Source:
Bo.Parker at msfc.nasa.gov
 Comments (click here to add a non-facebook comment)
Home | FAQs | Privacy | Terms | Advertise | Contact
Top 100 Tab Sites