Give Kudos?
Are you sure you want to give kudos to musicmixstudio?

Add To Songbook?
Are you sure you want to add this song to your songbook?


2,751 bands | 35,343 songs
Search: Register FREE! | Login
Browse Songs:
Browse Bands:
Tool Panel
Discuss This Song

1 2 3 4 5



Traditional - Chopsticks (Tab)
Submitter: musicmixstudio (6) on 10/1/08
Month Views: 8 | Total Views: 6,283
Help! We need a moderator for this artist. | Report This Song?
Song Tools

Comment

Songbook

Kudos

Show Chords

Print

embeding is disabled but for the time a cool version of chopsticks is here

http://www.youtube.com/watch?v=1gJqgfoEMNg


/--------1--------\ /--2---                     
E-|----------------------------|-----------------||-------------------|
B-|----------------------------|----------------.||-------------------|
G-|-0-0-0-0--0-0-0-0--4-4-4-4--|-5----5-4--2-0---||--5----------------|
D-|-3-3-3-3--2-2-2-2--0-0-0-0--|--------0--2-3--.||-------------------|
A-|----------------------------|-3----3----------||--3----------------|
E-|----------------------------|-----------------||-------------------|
                                                                               
                             Repeat all as desired, faster each time.  
E-||----------------------------------------------------||------------|
B-||.-5-3--1-0-----------------------------------------.||------------|
G-||--5-4--2-0--2-0--0-0-0-0-2-0------------0-------2---||------------|
D-||.-----------3-2--2-2-2-2-3-2-3--3-3-3-3-2-3-2-3-0--.||------------|
A-||-----------------------------5--5-5-5-5---5-3-5-----||------------|
E-||----------------------------------------------------||------------|
                                                      Repeat                          
             


Source: blong at taurus.oursc.k12.ar.us
 Comments (click here to add a non-facebook comment)
Home | FAQs | Privacy | Terms | Advertise | Contact
Top 100 Tab Sites