Give Kudos?
Are you sure you want to give kudos to musicmixstudio?

Add To Songbook?
Are you sure you want to add this song to your songbook?


2,732 bands | 35,202 songs
Search: Register FREE! | Login
Browse Songs:
Browse Bands:
Tool Panel
Discuss This Song

1 2 3 4 5



Traditional - Jingle Bells (Tab)
Submitter: musicmixstudio (0) on 10/2/08
Month Views: 2 | Total Views: 4,074
Help! We need a moderator for this artist. | Report This Song?
Song Tools

Comment

Songbook

Kudos

Show Chords

Print

VERSE

E|--------------|----------------|-------------|------------------|
B|--------------|----------------|-------------|------------------|
G|-----4-2-0----|-------4-2-0----|----5-4-2----|--3-3-------------|
D|---0-------0--|--00-0-------2--|--2-------2--|------5-2-4-------|
A|--------------|----------------|-------------|------------------|
E|--------------|----------------|-------------|------------------|
Dashing through the snow...                 ...laughing all the way.

TRANSITION:
E|--------------|----------------|--------------------------------|
B|--------------|----------------|----------3-3-3-33-5-3-------3--|
G|-----4-2-0----|-------4-2-0----|----5-4-2--------------5-2-0----|
D|---0-------0--|--00-0-------2--|--2-----------------------------|
A|--------------|----------------|--------------------------------|
E|--------------|----------------|--------------------------------|

CHORUS
E|---------------------------|-------------------------------|
B|------------------3--------|----------------------------3--|
G|--4-4-4--4-4-4--4---0-2-4--|--5-5-5-55-4-4-44-4-2-2-4-2----|
D|---------------------------|-------------------------------|
A|---------------------------|-------------------------------|
E|---------------------------|-------------------------------|
Jingle Bells...                 Oh what fun...

LAST TIME:
E|---------------------------|-------------------------------|
B|------------------3--------|------------------3-3----------|
G|--4-4-4--4-4-4--4---0-2-4--|--5-5-5-55-4-4-44-----5-2-0~~~-|
D|---------------------------|-------------------------------|
A|---------------------------|-------------------------------|
E|---------------------------|-------------------------------|


Source:andrew
 Comments (click here to add a non-facebook comment)
Home | FAQs | Privacy | Terms | Advertise | Contact
Top 100 Tab Sites