Give Kudos?
Are you sure you want to give kudos to WildCard76?

Add To Songbook?
Are you sure you want to add this song to your songbook?


2,615 bands | 34,295 songs
Search: Register FREE! | Login
Browse Songs:
Browse Bands:
Tool Panel
Discuss This Song

1 2 3 4 5





Travis Tritt - Put Some Drive In Your Country (Intro)
Album: The Rockin' Side (2002)
Submitter: WildCard76 (229) on 1/23/03 2 comments
Month Views: 60 | Total Views: 7,613
Moderator: Ray Terry | Report This Song?
Song Tools

Comment

Songbook

Kudos

Show Chords

Print

PUT SOME DRIVE IN YOUR COUNTRY
Travis Tritt

Intro


E--------------------------------------
B--------------------------------------
G------2--2p0----2-----2-----5/7-------
D------2--2p0----2-----2-----5/7-------
A---0---------0------0----0------------
E--------------------------------------

E--------------------------------------
B--------------------------------------
G------2--2p0----2-----2-----5/7/5-----
D------2--2p0----2-----2-----5/7/5-----
A---0---------0------0----0------------
E--------------------------------------

E--------------------------------------
B--------------------------------------
G------2--2p0----2-----2-----5/7-------
D------2--2p0----2-----2-----5/7-------
A---0---------0------0----0------------
E--------------------------------------

E--------------------------------------
B--------------------------------------
G------2--2p0----2---------------------
D------2--2p0----2---------------------
A---0---------0------------------------
E--------------------------------------

E--------------------------------------
B--------------------------------------
G------2--2p0----2-----2-----5/7-------
D------2--2p0----2-----2-----5/7-------
A---0---------0------0----0------------
E--------------------------------------
 Comments (click here to add a non-facebook comment)
You're the MAN!!!!
-txjonc | 8/19/2003
Do you know how to play the lead during the chorus?
Specifically, during the end of this line:

"When the music gets you dancing
You know that can't be wrong.......(the lead part???)"
-WildCard76 | 11/6/2012
Home | FAQs | Privacy | Terms | Advertise | Contact
Top 100 Tab Sites