Give Kudos?
Are you sure you want to give kudos to WildCard76?

Add To Songbook?
Are you sure you want to add this song to your songbook?


2,615 bands | 34,294 songs
Search: Register FREE! | Login
Browse Songs:
Browse Bands:
Tool Panel
Discuss This Song

1 2 3 4 5





Travis Tritt - Take It Easy (Intro)
Album: The Rockin' Side (2002)
Submitter: WildCard76 (218) on 1/19/03 1 comment
Month Views: 26 | Total Views: 5,503
Moderator: Ray Terry | Report This Song?
Song Tools

Comment

Songbook

Kudos

Show Chords

Print

TAKE IT EASY
Travis Tritt
From the Eagles Tribute CD, "COMMON THREADS"


intro
(listen to the song for timing)

E--3----------3----------3----------3----------3----------3---
B--3----------1----------1----------3----------1----------1---
G--0----------0----------2----------0----------0----------2---
D--0----------2----------0----------0----------2----------0---
A-------------------------------------------------------------
E-------------------------------------------------------------

E-------------------------------------------------------------
B-------------------------------------------------------------
G----b7--b7----7----------------------------------------------
D----b7--b7---b7p5--------------------------------------------
A-----------------7p5-----------------------------------------
E---------------------6p5/2--3(let ring)----------------------
 Comments (click here to add a non-facebook comment)
Sucks.
-schuyler20 | 12/18/2005
Home | FAQs | Privacy | Terms | Advertise | Contact
Top 100 Tab Sites