Give Kudos?
Are you sure you want to give kudos to WildCard76?

Add To Songbook?
Are you sure you want to add this song to your songbook?


2,620 bands | 34,365 songs
Search: Register FREE! | Login
Browse Songs:
Browse Bands:
Tool Panel
Discuss This Song

1 2 3 4 5





Trent Summar and the New Row Mob - Paint Your Name In Purple (Intro)
Submitter: WildCard76 (283) on 9/23/04 1 comment
Month Views: 24 | Total Views: 2,082
Help! We need a moderator for this artist. | Report This Song?
Song Tools

Comment

Songbook

Kudos

Show Chords

Print

PAINT YOUR NAME IN PURPLE
Trent Summar & The New Row Mob


'DROP-D' TUNING


E------------------------------------------------------
B------------------------------------------------------
G----------------------------------2-------------------
D-----------------------------x-x--2-4-5-4---------0---
A-----------------------------x-x--0-0-0-0--2-3-4------
D--0-0-0-b2--0---0-0-0-b2--0---------------------------

E--------------------------------------------------2---
B----------------------------------2---------------3---
G----------------------------------2---------------2---
D-----------------------------x-x--2-4-5-4---------0---
A-----------------------------x-x--0-0-0-0--2-3-4------
D--0-0-0-b2--0---0-0-0-b2--0---------------------------
 Comments (click here to add a non-facebook comment)
ne idea what the intro and guitar solo tabs are?? cause the solo is one of the best parts of the song..if you can figure that out, that would be dope..
-TLUdude2005 | 2/11/2005
Home | FAQs | Privacy | Terms | Advertise | Contact
Top 100 Tab Sites