Give Kudos?
Are you sure you want to give kudos to WildCard76?

Add To Songbook?
Are you sure you want to add this song to your songbook?


2,618 bands | 34,323 songs
Search: Register FREE! | Login
Browse Songs:
Browse Bands:
Tool Panel
Discuss This Song

1 2 3 4 5





Trent Willmon - The Wishing Well (Intro)
Album: Trent Willmon (2004)
Submitter: WildCard76 (230) on 5/4/06
Month Views: 16 | Total Views: 1,665
Moderator: dantheman85x | Report This Song?
Song Tools

Comment

Songbook

Kudos

Show Chords

Print

THE WISHING WELL
Trent Willmon

This is repeated throughout the song.

E----------------------------------
B--4h5-7-7-7p5p4--------4----------
G-----------------6p4h6------------
D----------------------------------
A----------------------------------
E----------------------------------

E----------------------------------
B--4h5-7-7-7p5p4-------------------
G-----------------6p4h6--4---------
D----------------------------------
A----------------------------------
E----------------------------------
 Comments (click here to add a non-facebook comment)
Home | FAQs | Privacy | Terms | Advertise | Contact
Top 100 Tab Sites