Give Kudos?
Are you sure you want to give kudos to rvacher?

Add To Songbook?
Are you sure you want to add this song to your songbook?


2,726 bands | 35,161 songs
Search: Register FREE! | Login
Browse Songs:
Browse Bands:
Tool Panel
Discuss This Song

1 2 3 4 5



Trisha Yearwood - Georgia Rain Tab (Tab)
Album: Jasper County (2006)
Submitter: rvacher (1) on 1/19/06
Month Views: 19 | Total Views: 5,364
Moderator: Ray Terry | Report This Song?
Song Tools

Comment

Songbook

Kudos

Show Chords

Print

There is another submission of this that works great for the chords, 
but I find this is a good accompaniment for the singer. 
Capo at the 3rd fret, all tabbing is relative to the capo. 
Play it along with the song which is in the key of Eb. 
The fingerings are basically a pattern pick of C, G, Em, D, 
and a slide of the whole C chord up or down 2 frets.

INTRO
|----------2-3--0--|----------------|
|-1s3-3----3-3--1--|---1-----3------|
|-0----0---0-0--0--|-----0-----0----|
|--------0-0-0--2--|-------------2--|
|---------------3--|-3-------------3|
|-1s3--------------|----------------|

|-2h3-3---2-3--0--|----------------|
|-3----3--3-3--1--|---1-----3------|
|-0-----0-0-0--0--|-----0-----0----|
|-0-------0-0--2--|-------2-----2--|
|--------------3--|-3-------------3|
|-----------------|----------------|


VERSES
 G5                 C
|X-----------------|-----------------|
|----------3-------|--1-------3------|
|----0-------0-----|----0-------0----|
|------0-------0---|------2-------2--|2 X
|--------2-------2-|-3--------------3|
|-3----------------|-----------------|

VERSE 1 
 Barefoot in the bed of your truck
 On a blanket lookin' up
 
VERSE 2
 Teenage kids sneakin' out again
 Heard the thunder rollin' in

VERSE 3
 Cotton fields remember when
 Flash of lightening drove us in

VERSE 4
 And I don't remember what was poundin' more
 The heart in my chest or the hood of that ford

VERSE 5
 The screen door flappin' in the wind
 Same old house I grew up in

VERSE 6
 You fixed your daddy's house up nice
 I saw it yesterday when I drove by

 G WALKDOWN TO Em
|-------------------------0-------|
|---3-------3-------0-------0-----|
|-----0-------0-------0-------0---|
|-------0-------0-------2-------2-|
|---------------------------------|
|-3-------2-------0---------------|

VERS 1 
 Half a moon peakin' down at us

VERSE 2
 We were fallin' the moment when

VERSE3
 We were soaked down to the skin

VERSE4
 As the sky fell in and the storm clouds poured

VERSE 5
 I can't believe I'm back again

VERSE 6
 Looks like you've made yourself a real good life


  D           C-SLIDE 2 FRETS
|-----------|--------------------------|
|---3-------|---1----->3--1----1------|
|-----2-----|-----0--->0--0------0----|
|-0-----0---|-------2->4--2--------2--|
|---------0-|-3------->5--3--3-------3|
|-----------|--------------------------|
VERSE 1
 From underneath the clouds

VERSE 2
 It all came pourin' down

VERSE 3
 By the time we climbed inside

VERSE4
 Worlds away outside

VERSE 5
 After all these years away

VERSE 6
 What else can I say

CHORUS 1 & 2

             C                         G
The Georgia rain on the Jasper county clay
              C                     D Dsus D
Couldn't wash away what I felt for you that day
G                     C
Just you and me down an old dirt road
G walk down to Em              
Nothin' in our way
C             D (NC)           G
Except for the Georgia rain

BACK TO INTRO AFTER 4TH VERSE


LAST CHORUS

            C                           G
The Georgia rain on the Jasper county clay
              C                               D Dsus D
Couldn't wash away the way I love you to this day
G                         C
The old dirt road's paved over now
G walk down to Em
Nothing here's the same
C          D           
Except for the Georgia rain

SOLO   C  G 


|--------------3-5-6-5p3-----------|
|----------4-6-----------6p3-3-4s6-|
|----------------------------------|
|--------5-------------------------|
|PM655h6---------------------------|
|PALM MUTE-------------------------|


               C                               D Dsus D
Couldn't wash away the way I love you to this day
G                           C
Just you and me down an red dirt road
G walk down to Em
Nothin' in our way
C          D           INTRO THEN END WITH G
Except for the Georgia rain
 Comments (click here to add a non-facebook comment)
Home | FAQs | Privacy | Terms | Advertise | Contact
Top 100 Tab Sites