Give Kudos?
Are you sure you want to give kudos to matellmon?

Add To Songbook?
Are you sure you want to add this song to your songbook?


2,712 bands | 35,098 songs
Search: Register FREE! | Login
Browse Songs:
Browse Bands:
Tool Panel
Discuss This Song

1 2 3 4 5



Vince Gill - Let Her In (Chord)
Album: The Key (1998)
Submitter: matellmon (78) on 2/14/02
Month Views: 35 | Total Views: 3,570
Moderator: Ray Terry | Report This Song?
Song Tools

Comment

Songbook

Kudos

Show Chords

Print

INTRO (acoustic guitar)
    __            __              __            __    ____    __
   |  |  |       |  |  |    |    |  |     |    |  |  |_|  |  |  |
   |  |  |       |  |  |    |    |  |     |    |  |  | |  |  |  |
|-------------|------------------------|---------------------------|
|-------------|---------------------3--|--3------------------------|
|-------------|--------2----2----4----\|/------4--2----------------|
|--------O----|--2--4----\/------------|T------------3-2--0--------|
|--0--2-------|---\/------T------------|--------------\/\/---2--0--|
|---\/--------|----S-------------------|---------------P-P---------|
     H


    ___    ___    ___    _____       ___    ___    _____    _____
   |   |  |   |  |   |  |   |_|     |   |  |   |  |_|   |  |_|   |
   |   |  |   |  |   |  |   | |     |   |  |   |  | |   |  | |   |
|--------------------------------|---------------------------------|
|--------------------------------|---------------------------------|
|---------2------2---4--2--------|----------------------2----------|
|--2---4------4-------------4-2--|--0----------0--2-4------4-2---0-|
|---\/-----------------------\/--|------0--2-------\/-------\/-----|
|----H------------------------S--|-------\/---------S--------S-----|
                                          H  


VERSE 1
D             G               Asus4  A
I didn't know love would come around
D                  G      A
Walked right up to me and knocked me down
   G                          D
I dropped straight down on my knees
G                      A
Asked my little girl - honey won't you help me please


CHORUS
G
Let her in
       A                 D
Let my heart feel love again
        G
Let her in
          A        D
Don't you know how long its been
        G
Let her in
        A              D
Let her come and be my friend
     G     A          G       D
Baby please won't you let her in


VERSE 2
I know it's hard for you since you mama's been gone
It must be strange to see me carry on
Honey just try to understand
It takes the love of a woman to complete the heart of a man



SOLO, CD = 1:44 (acoustic guitar)
      __    __     __        ____    __     __    ____    __    __
  |\ |  |  |  |   |  |  |   |_|  |  |  |   |  |  |_|  |  |  |  |  |
  |  |  |  |  |   |  |  |   | |  |  |  |   |  |  | |  |  |  |  |  |
|---------------|------------------------|-------------------------|
|---------------|------------------------|----3--------------------|
|---------------|-------2----------------|-------------------------|
|-------0-------|-2--4------4-2--0--2--5-|-5-----4-2--0--2--0------|
|-0--2-----2--0-|--\/--------\/\/----\/--|--------\/\/----\/---2--0|
|--\/-----------|---S---------P-P-----S--|---------P-P-----P----\/-|
    H                                                            P


    ___    ___    ___               _____    ___    _____    ___
   |   |  |   |  |   |  |          |_|   |  |   |  |_|   |  |   |
   |   |  |   |  |   |  |          | |   |  |   |  | |   |  |   |
|-----------------------5-------|----------------------------------|
|-------------------------------|----------------------------------|
|---------2------4---6----------|--6-4---2--4---2------------------|
|-------------2---\/------------|---\/\/-----\/----3-2---0---------|
|--2---4-----------S------------|----S-P------P-----\/------2---0--|
|---\/--------------------------|--------------------P-------------|
     S


    ___     ___     ____     ___      ____            ___     ___
   |   |   |   |   |  |_|   |   |    |    |   |      |   |   |   |
   |   |   |   |   |  | |   |   |    |    |   |      |   |   |   |
|----------------------------------|-------------------------------|
|----------------------------------|------3------------------------|
|----------2-------0---------------|-------------------------------|
|--2---4-------4------4-2---0---4--|--5-------4------2---0---------|
|----\/----------------\/-\/------\|-/----------------\/-----2---0-|
|-----S-----------------P--P-------|S------------------P------\/---|
                                                               P


   ___     ___     ___              ____     ___     ___     ___
  |   |   |   |   |   |   |        |_|  |   |   |   |   |   |   |
  |   |   |   |   |   |   |        | |  |   |   |   |   |   |   |
|-------------------------5-----|----------------------------------|
|-------------------------------|---------------2---3---2----------|
|-----2-----------4---6---------|--6-4--2---4---------\/----4---2--|
|---------4---2----\/-----------|---\/\/---------------P------\/---|
|-O-----------------S-----------|----P-S-----------------------P---|
|-------------------------------|----------------------------------|



    ___     ___              ___       ___                   ___
   |   |   |   |   |        |   |     |   |   |      |      |   |
   |   |   |   |   |        |   |     |   |   |      |      |   |
|-------------------------------3--|--3---2------------------------|
|----------3-------3--------5------|---\/-----5------3-------------|
|--2---4-------4-------------------|----P-------------------4---2--|
|---\/-----------------------------|-------------------------------|
|----S-----------------------------|-------------------------------|
|----------------------------------|-------------------------------|



    ____     ___     ___     ___       ____    ___    ___    ___
   |_|  |   |   |   |   |   |   |     |  |_|  |   |  |   |  |   |
   | |  |   |   |   |   |   |   |     |  | |  |   |  |   |  |   |
|----------------------------------|-------------------------------|
|----------------------------------|-------------------------------|
|---------------------------2------|--0---- -------------0--2---0--|
|--3-2--0-----------2---4-------4--|-----4-2--0---2--4--------\/---|
|---\/------2---0-----\/-----------|------\/-------\/----------P---|
|----P-----------------S-----------|-------P--------H--------------|



   ____    ____    ____    ____       ___    ____    ___     ___
  |    |  |    |  |    |  |    |     |   |  |_|  |  |   |   |   |
  |    |  |    |  |    |  |    |     |   |  | |  |  |   |   |   |
|---------------------------------|--------------------------------|
|---------3------------3-------3--|--3---3-------------------------|
|--------------0----------0------\|/-------------------------------|
|-4----5----------5---------------|T--------3-2--0--2---0----------|
|---\/----------------------------|----------\/-------------2---0--|
|----H----------------------------|-----------P--------------------|



    ____    ___     _____     ____       ____
   |    |  |   |   |_|   |   |_|  |     |    |   |      _
   |    |  |   |   | |   |   | |  |     |    |   |     |_|
|------------------------5-----------|-----------------------------|
|------------------------------------|-----------------------------|
|----------2-------4-6-------6-4--2--|--4----2---2-----------------|
|--------------2----\/--------\/-----|-----------------------------|
|--2----4------------S---------S-----|-----------------------------|
|----\/------------------------------|-----------------------------|
      S


(repeat CHORUS)
 
 Comments (click here to add a non-facebook comment)
Home | FAQs | Privacy | Terms | Advertise | Contact
Top 100 Tab Sites