Give Kudos?
Are you sure you want to give kudos to WildCard76?

Add To Songbook?
Are you sure you want to add this song to your songbook?


2,635 bands | 34,516 songs
Search: Register FREE! | Login
Browse Songs:
Browse Bands:
Tool Panel
Discuss This Song

1 2 3 4 5





Vince Gill - Let's Make Sure We Kiss Goodbye (Solo)
Album: Let's Make Sure We Kiss Goodbye (2000)
Submitter: WildCard76 (106) on 8/21/03
Month Views: 12 | Total Views: 2,789
Moderator: Ray Terry | Report This Song?
Song Tools

Comment

Songbook

Kudos

Show Chords

Print

LET'S MAKE SURE WE KISS GOODBYE 
Vince Gill

SOLO:
 
E---------------------b6--6-6--6--6p4--7------6p3h4p3---------3p4---------
B--b6-6p4--4-------------------------------------------x---6-------b6-----
G------------------3-------------------------------------3----------------
D-------------------------------------------------------------------------
A-------------------------------------------------------------------------
E-------------------------------------------------------------------------

  

E----------------------------11p10--6/8--10p8p6----6p4--3h4----------------
B--6--6p4---4--4--4--4h6---------------------------------------b6--4h6--6--
G------------------------------------------------------------3-------------
D--------------------------------------------------------------------------
A--------------------------------------------------------------------------
E--------------------------------------------------------------------------


E----------8---------------------------------------------------------------
B----b11r------------------------8-------------8h9p8-----------------------
G--3-----------b10r-8---8--8--10---10--8--b10--------b10r--8---8-----------
D--------------------------------------------------------------------------
A--------------------------------------------------------------------------
E--------------------------------------------------------------------------
 Comments (click here to add a non-facebook comment)
Home | FAQs | Privacy | Terms | Advertise | Contact
Top 100 Tab Sites