Give Kudos?
Are you sure you want to give kudos to matellmon?

Add To Songbook?
Are you sure you want to add this song to your songbook?


2,711 bands | 35,094 songs
Search: Register FREE! | Login
Browse Songs:
Browse Bands:
Tool Panel
Discuss This Song

1 2 3 4 5



Vince Gill - Liza Jane (Lead)
Album: Souvenirs (1995)
Submitter: matellmon (72) on 3/7/02
Month Views: 21 | Total Views: 7,951
Moderator: Ray Terry | Report This Song?
Song Tools

Comment

Songbook

Kudos

Show Chords

Print

Intro


E ||---------------------------------------------------------------------------|
B ||----3--/5\3---/7-6-5-3-----------------------------------------------------|
G ||-2/4-4/6-\4--4/7-6-5-4-----------------------------------------------------|
D ||---------------------------------------------------------------------------|
A ||---------------------------------------------------------------------------|
E ||---------------------------------------------------------------------------|
   


Riff


E ||----------------------14\12--12---15-15-15-15-15-15------------------------|
B ||-----7---7/-8/-9/-10--15\13--13---15^15^15^15^15^15^--13-------------------|
G ||-----7---7/-9/-10/11-------14---14------------------14---------------------|
D ||---------------------------------------------------------------------------|
A ||-5/9---9-------------------------------------------------------------------|
E ||---------------------------------------------------------------------------|

Riff

       p
      /   \        h
E ||--6-5-3--3-0--/\-----h-----p-p-----------------|
B ||--------5-4--3-4-1--/\-1--/\/\------h--1-------|
G ||-------------------0-3---3-2-0--0--/\----------|
D ||-------------------------------3--1-2----------|
A ||--------------------------------------3--------|
E ||-----------------------------------------------|
   

Ending

     
E ||--0---------------------------------------------------0---|
B ||--14---15 middle--------------------------------------2---|
G ||--14--------------strum repeat-----------repeat-5-4-3-2---|
D ||--14---16 ring-------------------h--------------5-4-3-2---|
A ||--0------------------------------/\--0----------------0---|
E ||--------------------------------16-17---------------------|
   

 Comments (click here to add a non-facebook comment)
Home | FAQs | Privacy | Terms | Advertise | Contact
Top 100 Tab Sites