Give Kudos?
Are you sure you want to give kudos to WildCard76?

Add To Songbook?
Are you sure you want to add this song to your songbook?


2,635 bands | 34,497 songs
Search: Register FREE! | Login
Browse Songs:
Browse Bands:
Tool Panel
Discuss This Song

1 2 3 4 5





Vince Gill - Oklahoma Borderline (Intro)
Album: The Best of Vince Gill (1989)
Submitter: WildCard76 (189) on 8/21/03
Month Views: 87 | Total Views: 4,823
Moderator: Ray Terry | Report This Song?
Song Tools

Comment

Songbook

Kudos

Show Chords

Print

OKLAHOMA BORDERLINE
Vince Gill


Intro:
 
  (G)                                             (C/G)  (G)   

E-----------------------------------------------------------------------------
B--------------------------------------------------5--------------------------
G--0------------------------------------------3h4--5----------4---------------
D--0-----------------------------------------------5----------3---------------
A------------------------------------------------------------------------0----
E--3--3-3-3-3-3-3-----3-3-3-3-3-3-3-3---3-3--------------3----3--3-3-3-3---3--

  (G)                                             (C/G)   (G)
   
E-----------------------------------------------------------------------------
B--------------------------------------------------5---3----------------------
G----------------------------------------------4---5---4----------------------
D----------------------------------------------3---5---3----------------------
A-----------------------------------------------------------------------------
E--3-3---3---3-3-3-3-3-3---3-3-3-3-3-3-3---3-3---------3---3--3--3-3-3-3------
 Comments (click here to add a non-facebook comment)
Home | FAQs | Privacy | Terms | Advertise | Contact
Top 100 Tab Sites