Give Kudos?
Are you sure you want to give kudos to WildCard76?

Add To Songbook?
Are you sure you want to add this song to your songbook?


2,620 bands | 34,364 songs
Search: Register FREE! | Login
Browse Songs:
Browse Bands:
Tool Panel
Discuss This Song

1 2 3 4 5





Vince Gill - Tryin' To Get Over You (Intro)
Album: Souvenirs (1995)
Submitter: WildCard76 (232) on 2/18/03 1 comment
Month Views: 23 | Total Views: 2,770
Moderator: Ray Terry | Report This Song?
Song Tools

Comment

Songbook

Kudos

Show Chords

Print

TRYIN' TO GET OVER YOU
Vince Gill

Intro
(Dropped-D Tuning)

E------------5--0------2--3---3---2--0--------------
B-------------------3--------------------3--3-------
G--------2------------------------------------------
D------4--------------------------------------------
A---------------------------------------------------
D--0------------------------------------------------

E---------0-----------------------------------0-2-3-
B------------2---2---3-3-3-----------------3--------
G--------------------2-2-2---2--2--0----2-----------
D------2------------------------------4-------------
A---0-----------------------------------------------
D---------------------------------------------------

E--3---2---0------2------0--------------------------
B--------------------------------3--3----2----------
G--------------------------------2-----------2------
D-----------------------------4-------2---------5---
A---------------------------------------------------
D------------------------0--------------------------



Christopher R.
Knoxville, TN
(this is my work on this song........)
 Comments (click here to add a non-facebook comment)
Chris Allen Newnan, Ga writes: "Part D" is played like this
e|----------------------------3-----------------3---------0h2-
B|--3-----3-3---------------3---3---3---3-----3---3---3---3---
G|------0-------0-----0---0-------0---0-----0-------0---0-2---
D|----0-------0---0-----0-----------------2---------------0---
A|--3-------0---------------------------3-----------------0---
E|--------------------3---------------------------------------

Great job on the tab!! It's perfect! Gob Bless
-free30185 | 3/19/2004
Home | FAQs | Privacy | Terms | Advertise | Contact
Top 100 Tab Sites