Give Kudos?
Are you sure you want to give kudos to rebel01?

Add To Songbook?
Are you sure you want to add this song to your songbook?


2,728 bands | 35,169 songs
Search: Register FREE! | Login
Browse Songs:
Browse Bands:
Tool Panel
Discuss This Song

1 2 3 4 5



Waylon Jennings - (That's What You Get) For Lovin' Me (Intro)
Submitter: rebel01 (1) on 3/22/04 1 comment
Month Views: 16 | Total Views: 5,751
Moderator: rdgrubbs | Report This Song?
Song Tools

Comment

Songbook

Kudos

Show Chords

Print

Artist: Waylon Jennings
Song: (That's What You Get) For Lovin' Me (Intro)
Submitted by: rebel01

E----------------------------------------------------------------------
B----------------------------------------------------------------------
G-----2-----------0---------------2-----------0------------------------
D--------0-----2---------------------0-----2---------------------------
A--0---------------------------0---------------------------------------
E----------------------------------------------------------------------

E----------------------------------------------------------------------
B------------5--5------------------------------------------------------
G--4b(hold)------------4r---2---2--------------------------------------
D-----------------------------4----------------------------------------
A----------------------------------------------------------------------
E-----------------------------------------5-5--4-2-0-------------------
 Comments (click here to add a non-facebook comment)
Sounds good to me...
-WildCard76 | 12/9/2004
Home | FAQs | Privacy | Terms | Advertise | Contact
Top 100 Tab Sites