Give Kudos?
Are you sure you want to give kudos to texasisalive?

Add To Songbook?
Are you sure you want to add this song to your songbook?


2,719 bands | 35,141 songs
Search: Register FREE! | Login
Browse Songs:
Browse Bands:
Tool Panel
Discuss This Song

1 2 3 4 5



Waylon Jennings - Good Ol' Boys (Bass)
Submitter: texasisalive (7) on 8/11/03
Month Views: 11 | Total Views: 6,770
Moderator: rdgrubbs | Report This Song?
Song Tools

Comment

Songbook

Kudos

Show Chords

Print

Good Ol' Boys
Waylon Jennings 




                     VERSE

G-------------------------------------------------------------------------
D-------------------------------------------------------------------------
A-3---3-----3---3---3---3-1---1-----3-3---3---3---3---3---3-1---1-----3-3-
E---3---3-1---1---1---1-----1---1-1-----3---1---1---1---1-----1---1-1-----

G---------------
D---------------
A-----3---3-1-3-
E-3-1---1-------

                           CHORUS

G----------------------------------------------------------------
D-------5---------------5---------------5-------3---3------3---3-                                   
A---3-3-----3-3-----3-3-----3-3-----3-3-------3---3------3---3---
E-3-------3-----3-3-------3-----3-3-------3-1----------1---------

                         GUITAR SOLO

G---------------------------------
D---------------------------------
A---3---3-1---1-----3-3-----3---3-
E-1---1-----1---1-1-----3-1---1---

         
                           CHORUS
 Comments (click here to add a non-facebook comment)
Home | FAQs | Privacy | Terms | Advertise | Contact
Top 100 Tab Sites