Give Kudos?
Are you sure you want to give kudos to WildCard76?

Add To Songbook?
Are you sure you want to add this song to your songbook?


2,632 bands | 34,453 songs
Search: Register FREE! | Login
Browse Songs:
Browse Bands:
Tool Panel
Discuss This Song

1 2 3 4 5





Waylon Jennings - Honkytonk Heros (Intro)
Submitter: WildCard76 (248) on 12/10/02
Month Views: 30 | Total Views: 4,841
Moderator: rdgrubbs | Report This Song?
Song Tools

Comment

Songbook

Kudos

Show Chords

Print

HONKY TONK HEROS
Waylon!

Intro

-----------------2--2-------2--2----------2------2--2-------3--3----
-----------------3--3-------3--3----------0------0--0-------2--2----
-----------------2--2-------2--2----------2------2--2-------2--2----
-------------0---0--0---0---0--0---0------1------1--1---2---2--2----
--0--2---4----------------------------4--2----2--2--2---------------
--------------------------------------------------------------------
                       
-------0--0-------2--2---------------------------2--2-------2--------
-------2--2-------3--3---------------------------3--3-------3--------
-------0--0-------2--2---------------------------2--2-------2--------
-------2--2---0---0--0------------0--2--3--4--0---------0---0--------
---0---------------------0--2--4-------------------------------------
---------------------------------------------------------------------
 Comments (click here to add a non-facebook comment)
Home | FAQs | Privacy | Terms | Advertise | Contact
Top 100 Tab Sites