Give Kudos?
Are you sure you want to give kudos to WildCard76?

Add To Songbook?
Are you sure you want to add this song to your songbook?


2,616 bands | 34,298 songs
Search: Register FREE! | Login
Browse Songs:
Browse Bands:
Tool Panel
Discuss This Song

1 2 3 4 5





Wynonna Judd - Rock Bottom (Intro)
Album: Tell Me Why (2004)
Submitter: WildCard76 (266) on 12/10/02
Month Views: 50 | Total Views: 3,942
Moderator: Ray Terry | Report This Song?
Song Tools

Comment

Songbook

Kudos

Show Chords

Print

--4--3--1--3--4--3--1----6------
----------------------3---------
--------------------------------
--------------------------------
--------------------------------
--------------------------------


----------1----------------
-1--2--3-----3--1----------
------------------------3--
---------------------------
---------------------------
---------------------------
 Comments (click here to add a non-facebook comment)
Home | FAQs | Privacy | Terms | Advertise | Contact
Top 100 Tab Sites