Give Kudos?
Are you sure you want to give kudos to countryman2009?

Add To Songbook?
Are you sure you want to add this song to your songbook?


2,751 bands | 35,343 songs
Search: Register FREE! | Login
Browse Songs:
Browse Bands:
Tool Panel
Discuss This Song

1 2 3 4 5



Zac Brown Band - Nothing (Intro)
Album: You Get What You Give (2010)
Submitter: countryman2009 (2) on 11/27/10
Month Views: 116 | Total Views: 9,758
Moderator: blugraspickr | Report This Song?
Song Tools

Comment

Songbook

Kudos

Show Chords

Print

Zac Brown Band - Nothing(Intro)



Capo on 3th



*Please post the whole song.


    Cadd9    |
E-----3---------------------------------------------------------------------------
B-----3------------------------3--------3---------3-------------------------------
G-------------------0-------0--------0---------0-----------0---------0------------
D---2-------------2----0h2--------3---------2-----------0---------0---------------
A-----3---------3-------------------------------------3--------2---------3--------
E---------------------------------------------------------------------------------





E----------------------------------------------------------------------------------
B----------------------3--------3---------3----------------3-----------0-----------
G-----------0-------0--------0---------0---------------0-----------0---------------
D---------2---0h2--------3---------2---------------5------------2-----------3------
A---0-2-3--------------------------------------------------------------------------
E----------------------------------------------------------------------------------
 Comments (click here to add a non-facebook comment)
Home | FAQs | Privacy | Terms | Advertise | Contact
Top 100 Tab Sites