Give Kudos?
Are you sure you want to give kudos to golfdoc?

Add To Songbook?
Are you sure you want to add this song to your songbook?


2,732 bands | 35,202 songs
Search: Register FREE! | Login
Browse Songs:
Browse Bands:
Tool Panel
Discuss This Song

1 2 3 4 5



Shenandoah - Daddy's Little Man (Tab)
Submitter: golfdoc (0) on 3/27/05 1 comment
Month Views: 1 | Total Views: 2,917
Moderator: dray149 | Report This Song?
Song Tools

Comment

Songbook

Kudos

Show Chords

Print

Daddy"s Little Man 
By Shenandoah
---------------------------------------------------------------------------------------------------
Just adding the intro and some fingering to  (lmofle's) tab. Thanks for posting the chords & lyrics.
Please make any additions or corrections as nessecary... Golfdoc
---------------------------------------------------------------------------------------------------

D/C# - X40232
D/B  - X20232
D/A  - X00232
G/F# - 2X0003
Bm/A  X04432

Intro (Capo III Fret)

      D/A           D/C#       D/B        D/A   
E--------0------------0---------0----------0--------       
D---------3--------3--3---------3-------3--3-------
G------2----------2-----------2---------2-----------   (Play 2x)  Listen to the song for the rythem
D---0----------0-----------0---------0-------------
A--0----------4-----------2---------0---------------
E---------------------------------------------------


     D/A                 D/C#
    Now I lay me down to sleep
E-----------0-------------------0---------------
D-------------3-------------3----3-------------
G--------2---------------2----------------------
D----0---------------0-------------------------
A--0---------------4----------------------------
E-----------------------------------------------

     D/B                D/A               D
    I pray to the Lord my baby's soul to keep
E-----------0------------------0---------------0--0h2-----
D-------------3------------3----3----------3-------------
G--------2---------------2----------------2---------------
D----0---------------0----------------0------------------
A--2---------------0--------------------------------------
E---------------------------------------------------------

    A
   And thats all I ask
E---------------------------------------------------
D--------------------------------------------------
G---------------------------------------------------                   (Couldn't figure out)
D--------------------------------------------------
A---------------------------------------------------
E---------------------------------------------------

    D                      D/C#
   Now he believes in the Golden Rule
E-------------0-----------------------0---------------
D---------------3-----------------3----3-------------
G----------2------------------2-----------------------
D-----0------------------0---------------------------
A--0------------------4-------------------------------
E-----------------------------------------------------

     D/B                D/A                 D
    Santa and the Old Lady who lived in a shoe
E-----------0------------------0---------------0--0h2----
D-------------3------------3----3----------3------------
G--------2---------------2----------------2--------------
D----0---------------0----------------0-----------------
A--2---------------0-------------------------------------
E--------------------------------------------------------

              Em                G            D
      I'm his guiding hand, and he's my best friend
E--------------------------------------------------------
D-------------------------------------------------------
G--------------------------------------------------------                (Couldn't figure out)
D-------------------------------------------------------
A--------------------------------------------------------
E--------------------------------------------------------

Now he is just a little boy 
We build bridges with nothing more than tinker-toys
that we'll cross again
He stumbles through the living room doing his best 
To fill his daddy's shoes
Yes he wants to be just like me.


chorus
A                 D 
In his eyes I'm a hero
A                                 D
But he don't know how that scares me
    G       G/F#        Em A D
I'm so much less than a Superman
        C        C/B    A
But for him I'll try to be


Bridge:
          Bm                Bm/A
Cause one day he'll be gone so far from home
   G      A       Bm
To old to hold my hand
                G  G/F# Em
And I'll be his biggest fan
          G        G/F#    Em A   D
And he'll still be Daddy's little man


He climbs in bed with mister bear
Closes his eys to say his bed time prayer.
He says "Daddys great and God is good,
let us thank him for our food." and
God understood, he knows how children do
God was a daddy too.


chorus
A                 D 
In his eyes I'm a hero
A                                 D
But he don't know how that scares me
    G       G/F#        Em A D
I'm so much less than a Superman
        C        C/B    A
But for him I'll try to be


Bridge:
          Bm                Bm/A
Cause one day he'll be gone so far from home
   G      A       Bm
To old to hold my hand
                G  G/F# Em
And I'll be his biggest fan
          G        G/F#    Em A   D
And he'll still be Daddy's little man 
 Comments (click here to add a non-facebook comment)
You can make the harmonica riff into a guitar one:

pre>
-------------------------------------------
-------------------------------------------
-------------------------------------------
-666666666-6-4-2--2-66-6-4-/7-777777777-6-4-
-------------------------------------------
-------------------------------------------
/pre>
pre>
-------------
-------------
-------------
-4-6h7-6-4-2-
-------------
-------------
/pre>
-printie | 5/22/2005
Home | FAQs | Privacy | Terms | Advertise | Contact
Top 100 Tab Sites