Give Kudos?
Are you sure you want to give kudos to axehappy?

Add To Songbook?
Are you sure you want to add this song to your songbook?


2,680 bands | 34,871 songs
Search: Register FREE! | Login
Browse Songs:
Browse Bands:
Tool Panel
Discuss This Song

1 2 3 4 5





Alabama - High Cotton (Tab)
Album: The Essential Alabama (2005)
Submitter: axehappy (131) on 3/20/02 2 comments
Month Views: 84 | Total Views: 17,979
Moderator: mo_freestyle | Report This Song?
Song Tools

Comment

Songbook

Kudos

Show Chords

Print

Alabama - High Cotton (picking)

By axehappy - axehappy at countrytabs.com

Use capo on 3rd fret.

All notes are relative to position of capo.

I've probably overcomplicated this picking, but I played it this way,
and I think it sounds really nice.... :-)


F   =     xx0232                            Bb(add9)   =   320203

C   =     x02220                            Bb         =   320003

***********************************************************************


Background picking in intro

   F             Bb(add9)    F       C       F  Bb   F   

E--------2------------3------2-----------------------------|
B---3-3-----3-3-----0-----0---3--3----2-0h2---3------------|
G---2-------------2-----2------2------2-------2-4-0--2-----|
D--0-0-0-0-0-0----0----------0--0-0----------0-----2-2h4---|
A------------------------------------0-0-------------------|
E----------------3-3-3-3-3---------------------------------|


Picking in verse (this repeats, with 2nd ending)

   F           Bb          F            C           F

E-------2-0-----3---3------2--5--2-------5-5-3-2-0-------2-0----
B---3-3-----3-----0---0-3---3--------3---------------3-3-----3--
G---2-------------------------------2----------------2----------
D--0-0-0-0-0----0--0-0-----0-0-0-0-0------2-2-2-----0-0-0-0-0---
A---------------------------------------0--0-0--0---------------
E--------------3-3--3--3----------------------------------------

   Bb          F      C       F         C         F    Bb   F
 
                              Ending 1
E---3---3------2--2---0-----:-------------------:----------------|
B-----0---0-3---3------2-2--:-3----3----2--0-2--:--3-------------|
G---------------------------:----2---2----2-----:--2-2-4-0--2----|
D---0--0-0-----0-0-0---2--2-:-0-4-0-4-----2--2--:-0-0-----2-2h4--|
A---------------------0-0---:-----------0--0----:----------------|
E--3-3--3--3----------------:-------------------:----------------|

 Comments (click here to add a non-facebook comment)
nice job a very good tab i took me a little bit to learn but it sounds good
-mwc5678 | 3/13/2005
hey, i've been playin a clawhammer for this
song and having trouble changin... can you ge
a soundbyte up plz...
-bwbucs23 | 8/12/2005
Home | FAQs | Privacy | Terms | Advertise | Contact
Top 100 Tab Sites