Give Kudos?
Are you sure you want to give kudos to WildCard76?

Add To Songbook?
Are you sure you want to add this song to your songbook?


2,618 bands | 34,321 songs
Search: Register FREE! | Login
Browse Songs:
Browse Bands:
Tool Panel
Discuss This Song

1 2 3 4 5





Alan Jackson - I'd Love You All Over Again (Tab)
Album: Here In The Real World (2001)
Submitter: WildCard76 (217) on 6/17/03
Month Views: 24 | Total Views: 6,106
Moderator: Ray Terry | Report This Song?
Song Tools

Comment

Songbook

Kudos

Show Chords

Print

I'D LOVE YOU ALL OVER AGAIN
Alan Jackson
(Jackson)
CD: Greatest Hits Collection
1995, Arista Records
Submitted by: Christopher R.

Intro:

E-----------------------------------------------------------------------
B-------------------------------------2---------------4--5--4--5--4-----
G----------------------2-4---2------4---4-2----2------4--6--4--6--4-----
D-------2-4---2------4-----4----------------4---------4--6--4--6--4-----
A-----4-----4-----------------------------------------------------------
E-----------------------------------------------------------------------


E------------------10/12------------------------12-------12-------------
B----7p5h7-7/10----------12h14---14/12---9/10------9h10------9/5--------
G------------------11/13------------------------------------------------
D--------------------------------14/12---9/11---------------------------
A-----------------------------------------------------------------------
E-----------------------------------------------------------------------

Has (A) it been ten years
Since (D) we said "I (B7) do"
I've (D) always heard (E) marriage made (D) one seem like (A) two
But you're looking better than (D) you did back (B7) then
You (D) still make this old heart give (E7) in

And if I (A) had it to do all o(D)ver (B7)
I'd (D) do it all (E) over a(A)gain (E7)
If to(A)morrow I (A/C#) found one more (D) chance to be(B7)gin
I'd (D) love you all (E7) over a(A)gain

The preacher man said "Til (D) death do us (B7) part"
That (D) seemed like for(E)ever to a (D) young man's (B7) heart
Now the days seem much shorter
The (D) longer we (B7) love
And the (D) memories just keep adding (E7) up

And if I (A) had it to do all o(D)ver (B7)
I'd (D) do it all (E) over a(A)gain (E7)
If to(A)morrow I (A/C#) found one more (D) chance to be(B7)gin
I'd (D) love you all (E7) over a(A)gain

If to(A)morrow I (A/C#) found one more (D) chance to be(B7)gin
I'd (D) love you all (E7) over a(D)gain (A)
 Comments (click here to add a non-facebook comment)
Home | FAQs | Privacy | Terms | Advertise | Contact
Top 100 Tab Sites