Give Kudos?
Are you sure you want to give kudos to kminer?

Add To Songbook?
Are you sure you want to add this song to your songbook?


2,862 bands | 36,210 songs
Search: Register FREE! | Login
Browse Songs:
Browse Bands:
Tool Panel
Discuss This Song

1 2 3 4 5



Alan Jackson - Job Description (Intro)
Album: Who Am I (1994)
Submitter: kminer (3) on 3/15/02
Month Views: 16 | Total Views: 6,512
Moderator: Ray Terry | Report This Song?
Song Tools

Comment

Songbook

Kudos

Show Chords

Print

I know it is probably not exact, but I think its close.

So feel free to make corrections.


INTRO  Alan Jackson / Job Descr i ption


E-----------------------------------------------
B-----------------------------------------------
G-----------------------------------------------
D-----------------0-----------------------------
A-----0---2-h-4-------5---5-h-4---2---0---------
G----------------------------------------0------



E-----------------------------------------------
B-----------------------------------------------
G-----------------------------------------------
D-----------------------------------------------
A-----5-b--4--2---0------------5---5-p-4--------
E-----------------------------------------0-----


 Comments (click here to add a non-facebook comment)
Home | FAQs | Privacy | Terms | Advertise | Contact
Top 100 Tab Sites