Give Kudos?
Are you sure you want to give kudos to axehappy?

Add To Songbook?
Are you sure you want to add this song to your songbook?


2,682 bands | 34,894 songs
Search: Register FREE! | Login
Browse Songs:
Browse Bands:
Tool Panel
Discuss This Song

1 2 3 4 5





Alan Jackson - Summertime Blues (Solo)
Album: Who Am I (1994)
Submitter: axehappy (95) on 5/19/02 2 comments
Month Views: 25 | Total Views: 12,478
Sound Byte: Listen
Moderator: Ray Terry | Report This Song?
Song Tools

Comment

Songbook

Kudos

Show Chords

Print

Alan Jackson - Summertime Blues (solo)

By axehappy - axehappy at countrytabs.com


Tune low E string to D.

These are the electric lead guitar parts in the order they occur 
during the solo...NOT the slide parts.


***********************************************************************

b   =   bend                              br   =   bend & release

p   =   pulloff                           \    =   slide down

h   =   hammer-on                         /    =   slide up

bh  =   bend & hold                       r    =   release bend

pbr =   pre-bend & release                 

****************************************************************************



   D

E---8---8-7-----------------------------------|
B--10b-10-8-10-----7\5-5----------------------|
G-----------9br-p7-7\5-5----------------------|
D-----------------9---7-7\5p3h5-3b-0----------|
A-----------------------------------3-0-3/5---|
D---------------------------------------------|


   D                      G                            D

E-----------------------8br-----10------7-5----------------------------
B--------------------8br----10bh--10r-8-8-6-8-6-5-3--------------------
G-----------------7-7------------------0----9-7-5-3b-------------------
D------------0-5/7-----------------------------0----5-0-3b-0-0----0--0-
A------0-0-3b-----------------------------------------------3-0-3b-----
D--0-3b------------------------------------------------------------3b--

                 G                            D

E------------------3----------------------------10-8-7-------------
B-----3-6b-6-5-2/3-3-2-1-0-----------------------------------------
G-------6b-6-5-3/4---3-2-0--4-2-0--------0--9/11--9-7-9pbr-7-------
D--2/4--------------------0-5-3-0-0-2-0--0------------------9-7----
A-----------------------------------3-1/2----------------------7br-
D------------------------------------------------------------------


E-----------------------------------------------------------|
B-------------------------------------------------------3---|
G-------------------------------------------------------2---|
D------0-0-----0-0------------------0-----0-------------0---|
A--4h5-----4h5-----2-0-2-0------4h5---4h5---4h5-2-0---------|
D-------------------------2br-0--------------------2br-0----|


 Comments (click here to add a non-facebook comment)
that is one of the best tabs ive seen the other is your "think ill
just stay here and drink" tab your awesome man

-wildbill2003 | 4/23/2003
very good
-txkidcrisp | 9/26/2003
Home | FAQs | Privacy | Terms | Advertise | Contact
Top 100 Tab Sites