Give Kudos?
Are you sure you want to give kudos to axehappy?

Add To Songbook?
Are you sure you want to add this song to your songbook?


2,668 bands | 34,775 songs
Search: Register FREE! | Login
Browse Songs:
Browse Bands:
Tool Panel
Discuss This Song

1 2 3 4 5





Big House - Cold Outside (Intro)
Submitter: axehappy (82) on 5/4/02
Month Views: 12 | Total Views: 2,999
Help! We need a moderator for this artist. | Report This Song?
Song Tools

Comment

Songbook

Kudos

Show Chords

Print

Big House - Cold Outside (intro)

By axehappy - axehappy at countrytabs.com

***********************************************************************

The rhythm guitar just plays a G chord through this.
The only difference is at the end of each slide part where it does this
before going back to strumming G.


E--3----------|
B--3----------|
G-------------|
D-------------|
A-------------|
E----0-0-1-2--|


The slide player plays this:


E-----------------------------|
B-----------------------------|
G-----------------------------|
D--5-8-5--8/10--8\5----3/5\---|
A--5-8-5--8/10--8\5----3/5\---|
E-----------------------------|


This whole thing repeats 3 times before the singing starts.


 Comments (click here to add a non-facebook comment)
Home | FAQs | Privacy | Terms | Advertise | Contact
Top 100 Tab Sites