Give Kudos?
Are you sure you want to give kudos to Rondo Fondu?

Add To Songbook?
Are you sure you want to add this song to your songbook?


3,284 bands | 38,006 songs
Search: Register FREE! | Login
Browse Songs:
Browse Bands:
Tool Panel
Discuss This Song

1 2 3 4 5



Billy Dean - If Ther Hadn't Been You - Fingerstyle (Tab)
Album: Billy Dean (1992)
Submitter: Rondo Fondu (25) on 4/5/04
Month Views: 636 | Total Views: 5,379
Moderator: falgorn | Report This Song?
Song Tools

Comment

Songbook

Kudos

Show Chords

Print

If There Hadn't Been You                           
By Tom Shapiro and Ron Shellard


Gtr I Acoustic Fingerstyle 
Standard Tuning

 Intro
  Moderately Slow Q=86

  E                   B                   Amaj7               Aadd9
 4/4
  Gtr I
  E E E E a E E E E   +E  E E E E E E E   +E  E E E E E E E   +E  E E E H
|-4-------4h5---4-4-|-(4)-------5---4-4-|-(4)-------2---4---|-----------0----||
|-----5-------------|-------4-----------|---------5-------2-|-(2)-----0------||
|---4---------4-----|-----4---4---4-----|-------2-----2-----|-------2--------||
|-------2-----------|-------------------|-----2-------------|-----2----------||
|-------------------|--2----------------|--0----------------|--0-------------||
|-0-----------------|-------------------|-------------------|----------------||
  W                    W                   W                   W


   Verse
    E                B                A
    E E E E E E Q    E E E E E E Q    E E E E E E E E
||----------0------|----------------|---------2---0---|
||o-----0-------0--|---------4------|-----------------|
||----1---1---1----|-----4-------4--|-----2---------2-|
||-----------------|---4---4---4----|---2---2---2-----|
||o----------------|-2--------------|-0---------------|
||--0--------------|----------------|-----------------|


                   E       EsusE     B
  E E E E E E Q    E E E E E E E E   E E E E E E E E
|---------2---0--|-------0---------|-----------------|
|----------------|-----0-----0---0-|-------4---------|
|-----2----------|---1-----2---1---|-----4-------4---|
|---2---2---2----|-----------------|---4-------4---4-|
|-0--------------|-----------------|-2-------2-------|
|----------------|-0---------------|-----------------|


                                      Pre-Chorus
  A                                    B/D#
  E E E E E E E E   E E E E E E E E    E E E E E E E E
|---------2---0---|---------2---0---||-----------------|
|-----------------|-----------------||-------4---------|
|-----2---------2-|-----2---------2-||-----4-------4---|
|---2---2---2-----|---2---2---2-----||---4-------4---4-|
|-0---------------|-0---------------||-6-------6-------|
|-----------------|-----------------||-----------------|


  E                A                B     A/B/D#
  E E E E E E Q    E E E E E E Q    E E E E E E Q
|-----2-0--------|----------------|----------------|
|-------------0--|---------2------|-----4-5-7------|
|---1-------1----|-----2-------2--|-------------4--|
|-2-------2------|---2---2---2----|---4-------7----|
|----------------|-0--------------|-2-----4-6------|
|----------------|----------------|----------------|


  E                B7                E       Esus4
  E E E E E E Q    E E E E E E E E   E E E E E E E E
|-------0--------|-----------------|-------0-----0---|
|-----0-------0--|-------4---------|-----0-----0-----|
|---1-------1----|-----2-------2---|---1-----2-----2-|
|---------2------|---4-------4---4-|-----------------|
|----------------|-2-------2-------|-----------------|
|-0--------------|-----------------|-0---------------|


                    Chorus
  E       F#m7E/G#   A                B
  E E E E E E E E    E E E E E E Q    E E E E E E E E
|-----0-----------||-------0--------|-------2---------|
|---0-------------||-----2----------|---2-4-----------|
|-1-----1-2---4---||-------------2--|-------------4---|
|-----------2---2-||---2-------2----|-----------4---4-|
|-----------------||-0-------0------|-2-------2-------|
|-----------------||----------------|-----------------|


  E       A         E           B/D#    C#m
  E E E E E E E E   E S S E E E E E E   E E E E a E E E E
|-----0-------0---|-------2-0---------|-----2-0-----------|
|-------0-------2-|-------------------|---0-----0h2-0---0-|
|---1-------------|-----1-------1-1-1-|---------------1---|
|-2---------2-----|---2-------2-------|-------------------|
|---------0-------|-------------------|-4-----------------|
|-----------------|-0-----------------|-------------------|


                                     1.
  G#m7              Aadd9     F#m7    B
  E E E E E E E E   E E E E E E E E    W
|-----------------|---------------0-|-------|
|-------4---------|-2-----------2---|-^4----|
|-----4-------4---|-----4-1---2-----|-^4----|
|---4-------4-----|---2-----4-------|-^4----|
|-----------------|-0---------------|-^2----|
|-4-------4-------|-----------------|-------|


  E                   B                   Amaj7               Aadd9
  E E E E a E E E E   +E  E E E E E E E   +E  E E E E E E E   +E  E E E H
|-4-------4h5---4-4-|-(4)-------5---4-4-|-(4)-------2---4---|-----------0-----||
|-----5-------------|-------4-----------|---------5-------2-|-(2)-----0------o||
|---4---------4-----|-----4---4---4-----|-------2-----2-----|-------2---------||
|-------2-----------|-------------------|-----2-------------|-----2-----------||
|-------------------|--2----------------|--0----------------|--0-------------o||
|-0-----------------|-------------------|-------------------|-----------------||
  W                    W                   W                   W


  2.
  B      E/G#      A                B       A/CB/D#
  E E Q  E E E E   E E E E E E Q    E E E E Q  Q
|-----2--------0-|-------0--------|-------2-2--2--|
|-4----------0---|-----2-------2--|---2-4---0--0--|
|---4------1-----|---2------------|---------------|
|--------2-------|-----------2----|---------------|
|----------------|-0-------0------|-2-------------|
|----------------|----------------|---------------|


  E       E/G#      A       Am6       E
  E E E E E E E E   E E E E E E E E   S E. +H     Q
|-----0-------0---|-----0-2-----2---|-2-4--(4)-------|
|-------0-------0-|-2-4-------1---1-|----------------|
|---1-------1-----|---------2-------|----------------|
|-2-------2-------|-----------------|----------------|
|-----------------|-----------------|----------------|
|-----------------|-----------------|----------------|


  B7                E     B/C#m   E/B A       Am
  E E E E E E E E   E E E E E E E E   E E E E E E E E
|-----------------|-----------------|-----------------|
|-----------------|-----------------|-----2---1-------|
|-----4-2---------|---4-4-------4---|-----------2-----|
|---4-------4-1---|-2---------2-----|---2---2-----2---|
|-2-------2-----2-|-------2-4-----2-|-0-------0-----0-|
|-----------------|-----------------|-----------------|


                                        H.=H
  E                 B7        E/B       B7
  E E E E E E E E   E E E E a E E E E   W
|-----0-------0---|-----------0-----0-|-2----||
|-------0-------0-|-------4-----------|-4----||
|-----------------|-----4-2-0h1---4-1-|-2----||
|---2-------2-----|---4---------4-----|------||
|-----------------|-2-----------------|------||
|-0-------0-------|-------------------|------||


 Outro
  H=H                           H.=H
  E                   B                   Amaj7                E
  E E E E a E E E E   +E  E E E E E E E   +H     a E E E E   a W
|-4-------4h5---4-4-|-(4)-------5---4-4-|-(4)----4h5-4-2-0-|-2h4----*|
|-----5-------------|-------4-----------|------------------|---5----*|
|---4---------4-----|-----4---4---4-----|--------4h6-4-2-1-|---4----*|
|-------2-----------|-------------------|------------------|---2----*|
|-------------------|--2----------------|--0---------------|---2----*|
|-0-----------------|-------------------|------------------|---0----*|
  W                    W                   W


Duration Legend
---------------
W - whole; H - half; Q - quarter; E - 8th; S - 16th; T - 32nd; X - 64th; a - acciaccatura
+ - note tied to previous; . - note dotted; .. - note double dotted
Uncapitalized letters represent notes that are staccato (1/2 duration)
Irregular groupings are notated above the duration line
Duration letters will always appear directly above the note
 Comments (click here to add a non-facebook comment)
Home | FAQs | Privacy | Terms | Advertise | Contact
Top 100 Tab Sites