Give Kudos?
Are you sure you want to give kudos to Deleted Member?

Add To Songbook?
Are you sure you want to add this song to your songbook?


3,284 bands | 38,006 songs
Search: Register FREE! | Login
Browse Songs:
Browse Bands:
Tool Panel
Discuss This Song

1 2 3 4 5



Billy Dean - Somewhere in my Broken Heart (Chord)
Album: Young Man (1991)
Submitter: Deleted Member (0) on 9/5/01 1 comment
Month Views: 489 | Total Views: 7,119
Moderator: falgorn | Report This Song?
Song Tools

Comment

Songbook

Kudos

Show Chords

Print

Intro:

|---8---7---5---3---0---0----0--0----0--3-3-|
|-------------------------3-------3---------|
|-------------------------------------------|
|-------------------------------------------|
|-------------------------------------------|
|-------------------------------------------|

                         
|---8---7---5---3---0---3--5-|---8---7---5---3-|
|----------------------------|-----------------|
|----------------------------|-----------------|
|----------------------------|-----------------|
|----------------------------|-----------------|
|----------------------------|-----------------|


|--0--0---0--3--0----|--------------------------------|
|-------3----------3-|--1----1--3--5--3--1------------|
|--------------------|--2--2----------------2--0------|
|--------------------|---------------------------3--2-|
|--------------------|-------------------------------3|
|--------------------|--------------------------------|


    C                Em          F           G
1.  You made up your mind it was time it was over
    C            Em      F-G
    After we had come so far
    C                   Em            F         G
    But I think there's enough pieces of forgiveness
    F               G      C 
    Somewhere in my broken heart.

    C                Em         F             G 
2.  I would not have chosen the road you have taken
    C              Em    F-G
    It has left us miles apart
        C             Em             F            G   
    But I think I can still find the will to keep going
    F               G      C
    Somewhere in my broken heart.

       F
3.  So fly go ahead and fly 
    C                 G       C
    Till you find out who you are
        F    
    And I, I will keep my love unspoken
    C               Am     G 
    Somewhere in my broken heart

    C              Em            F             G
4.  I hope that in time you will find what you long for
    C                   Em     F-G
    Love that's written in the stars
        C                Em         F        G
    And when you finally do I think you will see it's
    F               G      C
    Somewhere in my broken heart.


solo:

|--5---5-5---5--7--8---10--8--7--5--------------------|
|--6---6-6--------------------------8-------8--6-5----|
|----------------------------------------5----------7-|
|--------------------------------------5--------------|
|-----------------------------------------------------|
|-----------------------------------------------------|


|--------------------------|
|----------6--5------------|
|--5---7----------7---5----|
|--------------------------|
|--------------------------|
|--------------------------|


tag:
    C    F
    Girl I, I will keep my love unspoken
    C               Am     G
    Somewhere in my broken heart.

    C              Em            F             G  
5.  I hope that in time you will find what you long for
    C                   Em     F-G 
    Love that's written in the stars
        C                Em         F        G
    And when you finally do I think you will see it's
    F                G 
    Some where in my broken
    F                G               
    Some where in my broken
    F                G       C
    Some where in my broken, heart


Outro:

|---8--7--5--3--0--0----0--0--3--0----------------0--|
|---------------------3--------------3--1--------1---|
|-----------------------------------------2-----0----|
|----------------------------------------------2-----|
|---------------------------------------------3------|
|----------------------------------------------------| 
 Comments (click here to add a non-facebook comment)
good job on this tab. i really love this song, and i am glad that i can now play it. thank you
-Kracker | 6/5/2003
Home | FAQs | Privacy | Terms | Advertise | Contact
Top 100 Tab Sites