Give Kudos?
Are you sure you want to give kudos to whiskeybent1979?

Add To Songbook?
Are you sure you want to add this song to your songbook?


2,641 bands | 34,568 songs
Search: Register FREE! | Login
Browse Songs:
Browse Bands:
Tool Panel
Discuss This Song

1 2 3 4 5





Billy Joe Shaver - Live Forever (with Big & Rich) (Intro)
Album: Unshaven, Live at Smith's Olde Bar (1995)
Submitter: whiskeybent1979 (1) on 1/18/09
Month Views: 21 | Total Views: 4,158
Moderator: Ray Terry | Report This Song?
Song Tools

Comment

Songbook

Kudos

Show Chords

Print

E-----3--5--7--5--3-------3--5--7--5--3--------------------------------------
B------------------------------------------------------------------------------
G-----------------------------------------------------------------------------
D---------------------------------------------------------5--------7---------
A--------------------------------------------------3--7-----5--9--------------
E--3---------------------0----------------------------------------------------


E-----3--5--7--5--3--------3--5--7--5--3-------3--5--7--5--3---------------------------
B----------------------------------------------------------------------------------------
G----------------------------------------------------------------------------------------
D------------------------------------------------------------------------------5-----7--
A-------------------------------------------------------------------------3-7---5-9----
E--3---------------------3------------------0------------------------------------------


Its pretty close to what he's picking at the beginning of the song.

shinerbock79 at gmail.com
 Comments (click here to add a non-facebook comment)
Home | FAQs | Privacy | Terms | Advertise | Contact
Top 100 Tab Sites