Give Kudos?
Are you sure you want to give kudos to gimme?

Add To Songbook?
Are you sure you want to add this song to your songbook?


2,630 bands | 34,428 songs
Search: Register FREE! | Login
Browse Songs:
Browse Bands:
Tool Panel
Discuss This Song

1 2 3 4 5





Billy Ray Cyrus - Achy Breaky Heart 3 (Intro)
Album: Some Gave It All (1992)
Submitter: gimme (1) on 6/13/04
Month Views: 59 | Total Views: 8,330
Moderator: Ray Terry | Report This Song?
Song Tools

Comment

Songbook

Kudos

Show Chords

Print

alright, this is how it goes.
listen for the quick hammer-ons
E-------------------------- 
B-------------------------- 
G-2-2-----------2-2---4b--- 
D-----4-2---2h4-----4------ 
A-------------------------- 
E-------------------------- 

-----------------------------------------
------------------5--5--5--5--5--5-------
2-2---------2-4b--4b-4b-4b-4b-4b-4b-4br-2
----4-2---4------------------------------
-----------------------------------------
-----------------------------------------
 Comments (click here to add a non-facebook comment)
Home | FAQs | Privacy | Terms | Advertise | Contact
Top 100 Tab Sites