Give Kudos?
Are you sure you want to give kudos to bluesmany2k?

Add To Songbook?
Are you sure you want to add this song to your songbook?


2,630 bands | 34,428 songs
Search: Register FREE! | Login
Browse Songs:
Browse Bands:
Tool Panel
Discuss This Song

1 2 3 4 5





Billy Ray Cyrus - She's Not Crying Anymore (Solo)
Album: Some Gave It All (1992)
Submitter: bluesmany2k (0) on 6/9/05
Month Views: 66 | Total Views: 6,278
Sound Byte: Listen
Moderator: Ray Terry | Report This Song?
Song Tools

Comment

Songbook

Kudos

Show Chords

Print

SHE'S NOT CRYING ANYMORE
BILLY RAY CYRUS
SOME GAVE ALL

This is a very easy piece of lead work. One of the first that
I learned when I was first starting out. Enjoy.

Note: it's best to use the neck pup when playing this lead part.

  
                      D                       Em                                               
e-----------------------|------------------------------|
B-----------------------|------------------------------|
G-----------------------|------------------------------|
D----------5--4---------|---------5--4-----------4-----|
A----5--7-------7--5----|---5--7--------7--5--7--------|
E--5------------------5 |-5-------------------------7--|


                   A                           D   
e--------------------------|--------------------------------|
B--------------------------|--------------------------------|
G--------------------------|--------------------------------|
D-----4--5--4----------4---|--3/4--7-7--4-------------------|
A--7----------7--5--7------|--------------7br--5--7--5----5-|
E------------------------5-|----------------------------7---|

That's all folks.
 Comments (click here to add a non-facebook comment)
Home | FAQs | Privacy | Terms | Advertise | Contact
Top 100 Tab Sites