Give Kudos?
Are you sure you want to give kudos to axehappy?

Add To Songbook?
Are you sure you want to add this song to your songbook?


2,630 bands | 34,429 songs
Search: Register FREE! | Login
Browse Songs:
Browse Bands:
Tool Panel
Discuss This Song

1 2 3 4 5





Blake Shelton - Austin (Tab)
Album: Blake Shelton (2001)
Submitter: axehappy (154) on 1/10/02 3 comments
Month Views: 266 | Total Views: 57,566
Moderator: jhempel24 | Report This Song?
Song Tools

Comment

Songbook

Kudos

Show Chords

Print

Blake Shelton - Austin (picking pattern)

By axehappy - axehappy at countrytabs.com

Use other tab for words and chords.
***********************************************************************



INTRO (repeated at various places throughout song)

E---------------------------------------------|
B----3-3-----------3--------3-3---------1p0---|
G----0-0-0-------0-0-0----0-0-0-------2-0-----|
D---2-----4\2-0-0--------2-----4\2-0-0--------|
A--3--------------------3---------------------|
E--------------3--------------------3---------|



VERSE

E------------------------------------------------------------
B-------3-1------3-0------3-1------3-0----3----3------3------
G-----0-0-0----0-0-0----0-0-0----0-0-0----0-0--0-0--0-0-0-0--
D--0h2--------0--------2--------0--------2----4----2-----2---
A--3------------------3-----------------3----5---------------
E------------3-----------------3------------------0----------


E--------------------------------------------------3-------2--------
B------3-1------3--------------3---------3-1-----3-3-3-3--3---------
G----0-0-0-0---2-2-0---------0-0-0-0---0-0-0-0--2-----2--2--2-0-----
D---2---------0-----4-2-0---0-----0---2--------0--------0------4-0--
A--3-----------------------2---------3------------------------------
E-------------------------------------------------------------------


E-----------------------------3---2---|
B------3---------3-1------3---3---3---|
G----0-0-0-0---0-0-0-0---2----2---2---|
D---0-----0---2---------0-----0---0---|
A--2---------3------------------------|
E-------------------------------------|



END OF SONG

E----0-0-----------------0-0-----------------0-0----------------
B----3-3---------0-3\2---3-3---------0-3\2---3-3---------0-3\2--
G---2---2--------2-2----2---2--------2-2----2---2--------2-2----
D--0-----6\4-2--2------0-----6\4-2--2------0-----6\4-2--2-------
A--------------0-------------------0-------------------0--------
E---------------------------------------------------------------


E------------------------|
B-----3-3---3-------3h5--|
G--2--2-2h4-2-2-----2----|
D--2h4--------4p2---2----|
A-------------------0----|
E------------------------|
 Comments (click here to add a non-facebook comment)
axe can you do a soundbyte for this?
-ut4ever8 | 12/27/2004
thats f**king hard
-layinthepipe0 | 2/9/2005
thata not even how you play the damn song

-bigpimpin | 2/28/2005
Home | FAQs | Privacy | Terms | Advertise | Contact
Top 100 Tab Sites