Give Kudos?
Are you sure you want to give kudos to mkrousie?

Add To Songbook?
Are you sure you want to add this song to your songbook?


2,636 bands | 34,519 songs
Search: Register FREE! | Login
Browse Songs:
Browse Bands:
Tool Panel
Discuss This Song

1 2 3 4 5





Blake Shelton - Drink On It (Solo)
Submitter: mkrousie (6) on 7/16/12
Month Views: 30 | Total Views: 3,935
Moderator: jhempel24 | Report This Song?
Song Tools

Comment

Songbook

Kudos

Show Chords

Print

Blake Shelton:  Drink On It

Solo:


E[----------------------------------------------------------------------------------]
B[-15-12-13-12--15-12-15b(17)-15-12------------------------------------------8h10p8-]
G[-------------------------------14-12-----12h14p12\5---------------------7h9-------]
D[------------------------------------12h14----------5-5h7/9-9-7-7/9-57/9----------]
A[----------------------------------------------------5-----------------------------]
E[----------------------------------------------------------------------------------]

E[-----------------------------------------------------------------------------]
B[----8/10-10/12-12/13-12------------------------------------------------------]
G[-7------------------------12h14p12---7b---7h9p7\2----------------------------]
D[-----------------------------------------------------------------------------]
A[-----------------------------------------------------------------------------]
E[-----------------------------------------------------------------------------]
 Comments (click here to add a non-facebook comment)
Home | FAQs | Privacy | Terms | Advertise | Contact
Top 100 Tab Sites